Log in

One click and you are in

Login with Facebook Login with Google

Why sign up and log in

Guitar Tabs Explorer
Paul McCartney bass tabs for Again and again and again

Again And Again And Again bass tab by Paul McCartney

Paul McCartney bass tabs for Again and again and again

Bass tabs

Intro:
G|---------------------------------|---------------------------------|
D|5--------------------------------|---------------------------------|
A|----------------3----------------|---------------------------------|
E|---------------------------------|3--------------------------------|

G|---------------------------------|
D|---------------------------------|
A|--------------------0---1---2----|
E|0---1---2---3---4----------------|
Verse:
G|---------------------------------|---------------------------------|
D|---------------------------------|---------------------------------|
A|3--------------------------------|3--------------------------------|
E|----------------3----------------|----------------3----------------|

G|---------------------------------|---------------------------------|
D|---------------------------------|----------------2----------------|
A|3--------------------------------|3--------------------------------|
E|----------------3----------------|---------------------------------|

G|---------------------------------|---------------------------------|
D|3--------------------------------|3---------------5----------------|
A|----------------3----------------|--------3------------------------|
E|---------------------------------|---------------------------------|

G|---------------------------------|---------------------------------|
D|---------------------------------|---------------------------------|
A|3--------------------------------|3--------------------------------|
E|----------------3----------------|----------------3-------3--------|

G|---------------------------------|---------------------------------|
D|---------------------------------|---------------------------------|
A|3--------------------------------|3-----------------------3--------|
E|----------------3----------------|----------------3----------------|

G|---------------------------------|---------------------------------|
D|3--------------------------------|3--------------------------------|
A|----------------3----------------|----------------3----------------|
E|---------------------------------|---------------------------------|

G|---------------------------------|---------------------------------|
D|5--------------------------------|5---------------3----------------|
A|----------------5----------------|---------------------------------|
E|---------------------------------|---------------------------------|

G|---------------------------------|---------------------------------|
D|---------------------------------|---------------------------------|
A|3--------------------------------|3-----------3---2----------------|
E|----------------3----------------|---------------------------------|

G|---------------------------------|---------------------------------|
D|---------------------------------|5--------------------------------|
A|----------------5----------------|----------------5----------------|
E|3--------------------------------|---------------------------------|

G|---------------------------------|---------------------------------|
D|---------------------------------|---------------------------------|
A|3--------------------------------|3-----------------------3--------|
E|----------------3----------------|----------------3----------------|

G|---------------------------------|---------------------------------|
D|7-------7-------5-------5--------|3-------3-------3-------3--------|
A|---------------------------------|---------------------------------|
E|---------------------------------|---------------------------------|

G|---------------------------------|---------------------------------|
D|5--------------------------------|---------------------------------|
A|----------------3----------------|---------------------------------|
E|---------------------------------|3--------------------------------|

G|---------------------------------|
D|---------------------------------|
A|--------------------0---1---2----|
E|0---1---2---3---4----------------|

G|---------------------------------|---------------------------------|
D|---------------------------------|7--------------------------------|
A|3---------------7----------------|----------------7----------------|
E|---------------------------------|--------------------5------------|

G|---------------------------------|---------------------------------|
D|5-5-5----------------------------|---------------------------------|
A|----------------3----------------|----------------3-----------0----|
E|---------------------------------|3--------------------------------|

G|---------------------------------|---------------------------------|
D|---------------------------------|7--------------------------------|
A|3-----------3---7-----------7----|------------7--------------------|
E|---------------------------------|----------------5---5------------|

G|---------------------------------|---------------------------------|
D|5-5-5----------------------------|5--------------------------------|
A|----------------3----------------|----------------3----------------|
E|---------------------------------|---------------------------------|
Chorus:
G|---------------------------------|---------------------------------|
D|---------------------------------|---------------------------------|
A|7-----------7---7----------------|8-----------8---8----------------|
E|---------------------------------|---------------------------------|

G|---------------------------------|---------------------------------|
D|---------------------------------|---------------------------------|
A|---------------------------------|3-----------3---3----------------|
E|6-----------6---6----------------|---------------------------------|

G|---------------------------------|---------------------------------|
D|7-----------7---5-----------7----|3-----------3---3----------------|
A|---------------------------------|---------------------------------|
E|---------------------------------|---------------------------------|

G|---------------------------------|---------------------------------|
D|5--------------------------------|---------------------------------|
A|----------------3----------------|---------------------------------|
E|---------------------------------|3--------------------------------|

G|---------------------------------|
D|---------------------------------|
A|--------------------0---1---2----|
E|0---1---2---3---4----------------|


Verse:
G|---------------------------------|---------------------------------|
D|---------------------------------|---------------------------------|
A|3-----------3--------------------|3--------------------------------|
E|----------------3----------------|----------------3-------3--------|

G|---------------------------------|---------------------------------|
D|---------------------------------|----------------2----------------|
A|3-----------3--------------------|3--------------------------------|
E|----------------3----------------|---------------------------------|

G|---------------------------------|---------------------------------|
D|3--------------------------------|----3-----------5----------------|
A|----------------3----------------|---------------------------------|
E|---------------------------------|1--------------------------------|

G|---------------------------------|---------------------------------|
D|---------------------------------|---------------------------------|
A|3--------------------------------|3--------------------------------|
E|----------------3----------------|----------------3-------3--------|

G|---------------------------------|---------------------------------|
D|---------------------------------|---------------------------------|
A|3--------------------------------|3--------------------------------|
E|----------------3----------------|----------------3----------------|

G|---------------------------------|---------------------------------|
D|3--------------------------------|3--------------------------------|
A|----------------3----------------|----------------3----------------|
E|---------------------------------|---------------------------------|

G|---------------------------------|---------------------------------|
D|5-----------5---5-----------5----|5-----------5---3----------------|
A|---------------------------------|---------------------------------|
E|---------------------------------|---------------------------------|

G|---------------------------------|---------------------------------|
D|---------------------------------|---------------------------------|
A|3---------------------------0----|3---3-------3---2-------0--------|
E|----------------3----------------|---------------------------------|


Solo:
G|---------------------------------|---------------------------------|
D|---------------------------------|---------------------------------|
A|----------------0---0---0---0----|2---2---2---2---5---5---4---4----|
E|3---3---3---3--------------------|---------------------------------|

G|---------------------------------|---------------------------------|
D|---------------------------------|----0---2---5-------5------------|
A|3---------------------------0----|3-----------------------7--------|
E|------------5---3----------------|---------------------------------|

G|---------------------------------|---------------------------------|
D|7---------------7----------------|3---3-----------3---3------------|
A|--------7---------------7--------|--------3---------------3--------|
E|---------------------------------|---------------------------------|

G|---------------------------------|---------------------------------|
D|5---5----------------------------|---------------------------------|
A|----------------3---3------------|---------------------------------|
E|---------------------------------|3-------------------0---3---3----|

G|---------------------------------|---------------------------------|
D|---------------------------------|7--------------------------------|
A|3---3-----------7---7------------|----------------7----------------|
E|---------------------------------|--------------------5------------|

G|---------------------------------|---------------------------------|
D|5--------------------------------|---------------------------------|
A|------------3--------------------|------------3--------------------|
E|---------------------------------|3--------------------------------|

G|---------------------------------|---------------------------------|
D|---------------------------------|7-----------7-------5------------|
A|3-----------3---7----------------|----------------7----------------|
E|---------------------------------|---------------------------------|

G|---------------------------------|---------------------------------|
D|----5---5------------------------|5--------------------------------|
A|------------3--------------------|------------3--------------------|
E|---------------------------------|---------------------------------|


Chorus:
G|---------------------------------|---------------------------------|
D|---------------------------------|---------------------------------|
A|7--------------------------------|---------------------------------|
E|----------------0-----------0----|1-----------1---1----------------|

G|---------------------------------|---------------------------------|
D|---------------------------------|---------------------------------|
A|---------------------------------|3-----------3---3----------------|
E|6-----------6---6----------------|---------------------------------|

G|---------------------------------|---------------------------------|
D|7-------7-------5-------5--------|3-------3-------3-------3--------|
A|---------------------------------|---------------------------------|
E|---------------------------------|---------------------------------|

G|---------------------------------|---------------------------------|
D|5--------------------------------|5--------------------------------|
A|----------------3----------------|---------------------------------|
E|---------------------------------|---------------------------------|

G|---------------------------------|---------------------------------|
D|5--------------------------------|---------------------------------|
A|----------------3----------------|---------------------------------|
E|---------------------------------|3--------------------------------|

G|---------------------------------|---------------------------------|
D|5--------------------------------|5--------------------------------|
A|----------------3----------------|----------------3----------------|
E|---------------------------------|---------------------------------|

G|---------------------------------|---------------------------------|
D|5--------------------------------|5--------------------------------|
A|----------------3----------------|----------------3-------1--------|
E|---------------------------------|---------------------------------|

G|---------------------------------|---------------------------------|
D|---------------------------------|---------------------------------|
A|----------------3----------------|----------------3-------3--------|
E|3--------------------------------|3--------------------------------|

G|---------------------------------|---------------------------------|
D|---------------------------------|---------------------------------|
A|----------------3-------2---3----|------------2---3----------------|
E|3--------------------------------|3--------------------------------|

G|---------------------------------|---------------------------------|
D|---------------------------------|---------------------------------|
A|----------------3----------------|----------------3-------2---3----|
E|3--------------------------------|3--------------------------------|

G|---------------------------------|---------------------------------|
D|---------------------------------|---------------------------------|
A|----------------3----------------|--------1---2---3-------2--------|
E|3--------------------------------|3--------------------------------|

G|---------------------------------|---------------------------------|
D|---------------------------------|---------------------------------|
A|----------------3----------------|------------2---3----------------|
E|3--------------------------------|3--------------------------------|
ⓘ Bass guitar tab for 'Again And Again And Again' by Paul McCartney, a male rock artist from Liverpool, England. Paul McCartney was born in 1942. Paul McCartney is known for his philosophical rock/pop music.

Almost there ...

Sign in to get your own page with links to favourite songs and more. You are just one click away...

Login with Facebook Login with Google