Motor City Is Burning by MC5

Motor City Is Burning tab by MC5

Guitar tabs

E----------------------------------------------------------------------------|
B----------------------------------------------------------------------------|
G----------------------------------------------------------------------------|
D---2-2-2-2-0---------------2h0-2-0-0------0-----2h0-2-0-0------0------------|
A-------------2-0---------------------0h2-------------------0h2--------------|
E-----------------3-0---0-0------------------0-0-----------------------------|


E---------------------------------------------------------------------------|
B---------------------------------------------------------------------------|
G----------2h0-2-0-0------0-------------------------------------------------|
D---------------------0h2---------2h0-2-0-0------0--------------------------|
A------0-0----------------------------------0h2-----------------------------|
E-----------------------------0-0-------------------------------------------|


E----------------------------------------------------------------------------|
B----------------------------------------------------------------------------|
G---------2/4-2-----2---------------2-0---2h02h02h0--------------------------|
D---------------2h4----------------------------------------------------------|
A----2-2----------------------0-0--------------------------------------------|
E----------------------------------------------------------------------------|


E---------------------------------------------------------------------------|
B---------------------------------------------------------------------------|
G---------------------------------------------------------------------------|
D-----------2h0-2-0-0------0-----2h0-2-0-0------0---------------------------|
A---------------------0h2-------------------0h2-----------------------------|
E-------0-0------------------0-0--------------------------------------------|

Find guitar tabs and chords

A B C D E F G H I J K L M N O P Q R S T U V W X Y Z #