Miss X by MC5

Miss X chords by MC5

Guitar chords with lyrics

Miss X
From the album High Times


[Intro]

 C5       G5 G#5 A5        G5 x4
e|------------------------------------------|
B|------------------------------------------|
G|-5---5---5--5-----------------------------|
D|-5---5---5--5---5--6--7---7--7---7--7---5-|
A|-3---3---3--3---5--6--7---7--7---7--7---5-|
E|----------------3--4--5---5--5---5--5---3-|


[Verse]

    C5 G5 G#5 A5 G5
Oh now, yeah,   yeah
C5     G5 G#5 A5 G5
hey, hey, hey, hey, yeah
C5  G5 G#5 A5 G5
I- I- I- I- I
C5   G5 G#5 A5 G5
see you ly- in' here
C5  G5 G#5 A5 G5
You're so close,
C5 G5 G#5 A5    G5
you're so near, causing


[Chorus]

 F     C
Sensations rollin' through me
 F              C C/B Am G
Comes on strong, feels just like a sp-ell
 F     C    C/B   Am   G
Sensations rollin', turnin' from me to you
 F          G    F G
Causing this aura of heat to swirl


[Verse]

C5 G5 G#5 A5 G5
Yo-  ur lips,
C5    G5 G#5 A5 G5
your undulating hips
C5     G5 G#5 A5 G5
Squeeze me, oh so tight
C5       G5 G#5 A5    G5
Fulfill me through the night, causing


[Chorus]

 F     C
Sensations rollin' through me
 F              C C/B Am G
Comes on strong, feels just like a sp-ell
 F     C    C/B   Am   G
Sensations rollin', turnin' from me to you
 F          G    F G
Causing this aura of heat to swirl


[Bridge]

Am           G
Yeah -- Comes on strong
F
Yeah baby, baby, baby, baby, baby
Am       G
Comes on strong
F
Don't you know my blood is raging?
Am       G
Comes on strong
F
Darling, darling, darling, darling
Am       G
Comes on strong
   F
I'm tired of all my failings
 Dm        G
Bring me close and burn, burn, burn


[Verse]

C5     G5 G#5 A5 G5
Heat gives way to sweat
C5     G5 G#5 A5 G5
My body's soaking wet
C5  G5  G#5 A5 G5
We slide and slip
C5  G5 G#5 A5   G5
from hip to lip causing


[Chorus]

 F     C
Sensations rollin' through me
 F              C C/B Am G
Comes on strong, feels just like a sp-ell
 F     C    C/B   Am   G
Sensations rollin', turnin' from me to you
 F          G    F G
Causing this aura of heat to swirl


[Outro]

C5     G5 G#5 A5
Yeah, yeah, yeah, yeah - Oh baby, baby,
C5 G5 G#5 A5
       You'll always make me hot
C5 G5 G#5 A5
       Come on and gimme all you've got
C5 G5 G#5 A5
       Yeah, yeah, yeah

C5  G5 G#5 A5 G5
I- I- I- I- I
C5  G5 G#5 A5 G5
I- I- I- I- I
C5  G5 G#5 A5 G5
I- I- I- I- I
C5  G5 G#5 A5 G5
I- I- I- I- I


[Coda]

  C (x16)             Bb            A
e|--------------------------------------------------------------|
B|--------------------------------------------------------------|
G|-5-5-5-5-5-5-5-5-5-5-5-5-5-5-5-5--3--3--3--3--3--3--3--3---2--|
D|-5-5-5-5-5-5-5-5-5-5-5-5-5-5-5-5--3--3--3--3--3--3--3--3---2--|
A|-3-3-3-3-3-3-3-3-3-3-3-3-3-3-3-3--1--1--1--1--1--1--1--1---0--|

Find guitar tabs and chords

A B C D E F G H I J K L M N O P Q R S T U V W X Y Z #