Log in

One click and you are in

Login with Facebook Login with Google

Why sign up and log in

Guitar Tabs Explorer
Mazzy Star tabs for Ghost highway

Guitar tabs with lyrics

Ghost Highway
(Sandoval/Roback)
from the album "She Hangs Brightly"
tabbed by Brian Mojica <BMojica@juno.com>
lyrics courtesy of Kevin Jenkins

h = hammer on
p = pull off
/ = slide up
\ = slide down
~ = vibrato
^ = bend (half-, full-, two-steps etc. specified)
rb=release bend

RHYTHM FIGURE 1
  A chord diagramF#F#  A chord diagramE MajorE A chord diagramF#F#          A chord diagramA augmentedA   A chord diagramF#F#
|-----------------|-----------------|
|-----------------|-----------------|
|-----------------|-2---------------|A chord diagramA augmentedA
|-4-4-2-4-------4-|-----2-4---------|
|-----------------|-----------------|
|-----------------|-----------------|
|                                   |
|-----------------|-----------------|
|-----------------|-----------------|
|-----------------|-----------------|A chord diagramBB
|-4-4-4-4---------|-----------X-4-4-|
|-4-4-4-4-X-X-X-X-|-X-X-X-X-X-X-4-4-|
|-2-2-0-2-X-X-X-X-|-X-X-X-X-X-X-2-2-|

RHYTHM FIGURE 2
  A chord diagramBB   A chord diagramA augmentedA A chord diagramBB          (A chord diagramD MajorD)  A chord diagramBB
|-----------------|-----------------|
|-----------------|-3---------------|
|-4-4-2-4-------4-|-----2-4---------|A chord diagramA augmentedA
|-----------------|-----------------|
|-----------------|-----------------|
|-----------------|-----------------|
|                                   |
|-----------------|-----------------|
|-----------------|-----------------|
|-4-4-4-4---------|-4---4-4---------|A chord diagramBB
|-4-4-4-4---------|-4---4-4-X-X-X-X-|
|-2-2-0-2---------|-2---0-2-X-X-X-X-|
|-----------------|-----------------|

RHYTHM FIGURE 3
  A chord diagramF#F#      A chord diagramA augmentedA         A chord diagramG#G#      A chord diagramG+G
|-----------------|-----------------|
|-----------------|-----------------|
|-----------------|-----------------|A chord diagramA augmentedA
|-4-------7-------|-6-------5-------|
|-4-------7-------|-6-------5-------|
|-2-------5-------|-4-------3-------|
|                                   |
|-----------------|-----------------|
|-----------------|-----------------|
|-----------------|-----------------|A chord diagramBB
|-----------------|-----------------|
|---------0-------|-----------------|
|-2---------------|-4-------3-------|

START WITH RHY FIG 1A
RHYTHM FIG.1B ENTERS AT THE FIFTH TIME
You're..

And ..r

Ghost..

And ..
            RHY FIG 2A and A chord diagramBB
Forever ..

And..
RHY FIG 1A and A chord diagramBB

Your ..

And ..

Your ..

And ..
            RHY FIG 3
Forever ..

And ..
RHY FIG 1A and A chord diagramBB (2X)
RHY FIG 3A and A chord diagramBB (3x)
RHY FIG 1A and A chord diagramBB (play during guitar solo)

You're ..

And ..

Ghost...

And ..
            RHY FIG 2A and A chord diagramBB
Forever ..

And ..
RHY FIG 1A and A chord diagramBB (2x)
then play:
|-----------------|-----------------|
|-----------------|-----------------|
|-----------------|-----------------|
|-4-4-4-4-4-4-4-4-|-4-4-4-4-4-4-4-4-|
|-4-4-4-4-4-4-4-4-|-4-4-4-4-4-4-4-4-|
|-2-2-2-2-2-2-2-2-|-2-2-2-2-2-2-2-2-|
RHY FIG 3A and A chord diagramBB (3x)
RHY FIG 1A and A chord diagramBB (2x)
then play:
|-----------------|-----------------|-----------------|-----------------||
|-----------------|-----------------|-----------------|-----------------||
|-----------------|-----------------|-----------------|-----------------||A chord diagramA augmentedA
|-4-4-4-4---------|-4-4-4-4---------|-4-4-4-4---------|-4---4-4-4-7---4-||
|-4-4-4-4-4-4-4-4-|-4-4-4-4-4-4-4-4-|-4-4-4-4-4-4-4-4-|-4---4-4-4-7---4-||
|-2-2-0-2-2-2-2-2-|-2-2-0-2-2-2-2-2-|-2-2-0-2-2-2-2-2-|-2---0-2-0-5---2-||
|                                   |
||
|-----------------|-----------------|-----------------|-----------------||
|-----------------|-----------------|-----------------|-----------------||
|-----------------|-----------------|-----------------|-----------2-----||A chord diagramBB
|-4-4-2-4---------|-4-4-2-4---------|-4-4-2-4---------|-4---2-4-2-----4-||
|-----------------|-----------------|-----------------|-----------------||
|-----------------|-----------------|-----------------|-----------------||

Almost there ...

Sign in to get your own page with links to favourite songs and more. You are just one click away...

Login with Facebook Login with Google