Log in

One click and you are in

Login with Facebook Login with Google

Why sign up and log in

Guitar Tabs Explorer
Mayhem tabs for Freezing moon

Guitar tabs with lyrics

Band: MAYHEM


>From the album "De Mysteriis Dom Sathanas"

Intro
-----0-----------0----------0----------------0-------
-------0-----------0----------0----------------0-----
---------0-----------0----------0----------------0---
--2------------2-----------2-------------------------
--2------------2-----------2-------2-332-------------
--0------------0-----------0-------------320---------     Repeat...


---------------------------------------------------------------
---------------------------------------------------------------
---------------------------------------------------------------
---------9-99----------9-888----------9-99---------10-10-10-9--
---------7-77----------7-666----------7-77---------8--8--8--7--
-0-0-0-0-------0-0-0-0--------0-0-0-0------0-0-0-0-------------   Repeat...


Fast!
---------------------------------------------
---------------------------------------------
---------------------------------------------
---------------------------------------------
-----------7-8-----------7-8----------7-8----
--00000000-----00000000----00000000---------- Ecc...


Then: (fast)
---------------------------------------------------------
---------------------------------------------------------
---------------------------------------------------------
---------------------------------------------------------
-----------------777777-----------------------77777-8888-
-00000000 777777--------777777-0000000-777777------------   Repeat...

The riff above is used even in the first verse. The notes are the same, only the time changes.
Listen to the record and you'll get it easily!


Then came the easiest part of the song, with a very slow tempo, based on only 2 chords: A chord diagramE MajorE and F.
-----------------
-----------------
-----------------
-2--3---2-3------
-2--3---2-3------
-0--1---0-1------ Repeat till the end of the solo.


Then repeat all riffs and end with:
---------------
---------------
---------------
---10-10-10-9--
---8--8--8--7--
--------------- Let ring.


If you want to hear another version of this song listen the Vader one, available on the "Reign Forever World" EP!

If you want to mail me: spirit_crusher@totaldeath.com

SUPPORT MUSIC, NOT RUMORS!

Almost there ...

Sign in to get your own page with links to favourite songs and more. You are just one click away...

Login with Facebook Login with Google