Log in

One click and you are in

Login with Facebook Login with Google

Why sign up and log in

Guitar Tabs Explorer
Mayhem bass tabs for Freezing moon

Bass tabs

G||---------------|---------------|---------------|--------------------|
D||---------------|---------------|---------------|--------------------|
A||---------------|---------------|---------------|--------------------|
E||--0------------|--0------------|--0------------|--5--6--6--5--3--1--|

---------------|---------------|---------------|--------------------|
---------------|---------------|---------------|--------------------|
---------------|---------------|---------------|--------------------|
--0------------|--0------------|--0------------|--5--6--6--5--3--1--|


---------------|----------------|---------------|--------------------|
---------------|----------------|---------------|--------------------|
---------------|----------------|---------------|--------------------|
--0------------|--12------------|--0------------|--5--6--6--5--3--1--|


---------------|---------------|---------------|--------------------|
---------------|---------------|---------------|--------------------|
---------------|---------------|---------------|--------------------|
--0------------|--0------------|--0------------|--5--6--6--5--3--1--|


---------------|----------------|---------------|--------------------|
---------------|----------------|---------------|--------------------|
---------------|----------------|---------------|--------------------|
--0------------|--12------------|--0------------|--5--6--6--5--3--1--|


---------------|---------------|---------------|--------------------|
---------------|---------------|---------------|--------------------|
---------------|---------------|---------------|--------------------|
--0------------|--0------------|--0------------|--5--6--6--5--3--1--|


---------------|----------------|---------------|--------------------|
---------------|----------------|---------------|--------------------|
---------------|----------------|---------------|--------------------|
--0------------|--12------------|--0------------|--5--6--6--5--3--1--|


---------------|---------------|---------------|--------------------|----|----|
---------------|---------------|---------------|--------------------|----|----|
---------------|---------------|---------------|--------------------|----|----|
--0------------|--0------------|--0------------|--5--6--6--5--3--1--|----|----|


----|----|------------------------|-------------------------|
----|----|------------------------|-------------------------|
----|----|-----------7----7--7----|------------6----6--6----|
----|----|--0---0-0---------------|--0---0-12---------------|


------------------------|------------------------|------------------------|
------------------------|------------------------|------------------------|
-----------7----7--7----|-----------8----8--8----|-----------7----7--7----|
--0---0-0---------------|--0---0-0---------------|--0---0-0---------------|


-------------------------|------------------------|------------------------|
-------------------------|------------------------|------------------------|
------------6----6--6----|-----------7----7--7----|-----------8----8--8----|
--0---0-12---------------|--0---0-0---------------|--0---0-0---------------|


------------------------|-------------------------|------------------------|
------------------------|-------------------------|------------------------|
-----------7----7--7----|------------6----6--6----|-----------7----7--7----|
--0---0-0---------------|--0---0-12---------------|--0---0-0---------------|


------------------------|------|------------------------------|
------------------------|------|------------------------------|
-----------8----8--8----|------|-----6-7----6-7----6-7----6-7-|
--0---0-0---------------|------|--0------0------0------0------|


------------------|------------------|
------------------|------------------|
------------------|------------------|
------------------|------------------|


------------------------------------------------------------------|
------------------------------------------------------------------|
----------------------------------7-7-7-7-7-7-7-7-----------------|
--0-0-0-0-0-0-0-0-6-6-6-6-6-6-6-6-----------------6-6-6-6-6-6-6-6-|


---------------------------------------------------------|
---------------------------------------------------------|
----------------------------------7-7-7-7-7-7-7-7--------|
--0-0-0-0-0-0-0-0-6-6-6-6-6-6-6-6-----------------6-6----|


------------------------------------------------------------------|
------------------------------------------------------------------|
--------------------------------------------------7-7-7-7---------|
--0-0-0-0-0-0-0-0-0-0-0-0-0-0-0-0-6-6-6-6-6-6-6-6---------6-6-6-6-|


------------------------------------------------------------------|
------------------------------------------------------------------|
--------------------------------------------------7-7-7-7---------|
--0-0-0-0-0-0-0-0-0-0-0-0-0-0-0-0-6-6-6-6-6-6-6-6---------6-6-6-6-|


------------------------------------------------------------------|
------------------------------------------------------------------|
--------------------------------------------------7-7-7-7---------|
--0-0-0-0-0-0-0-0-0-0-0-0-0-0-0-0-6-6-6-6-6-6-6-6---------6-6-6-6-|


------------------------------------------------------------------|
------------------------------------------------------------------|
--------------------------------------------------7-7-7-7---------|
--0-0-0-0-0-0-0-0-0-0-0-0-0-0-0-0-6-6-6-6-6-6-6-6---------6-6-6-6-|


------------------------------------------------------------------|
------------------------------------------------------------------|
----------------------------------7-7-7-7-7-7-7-7-----------------|
--0-0-0-0-0-0-0-0-6-6-6-6-6-6-6-6-----------------6-6-6-6-6-6-6-6-|


------------------------------------------------------------------|
------------------------------------------------------------------|
----------------------------------7-7-7-7-7-7-7-7-----------------|
--0-0-0-0-0-0-0-0-6-6-6-6-6-6-6-6-----------------6-6-6-6-6-6-6-6-|


------------------------------------------------------------------|
------------------------------------------------------------------|
----------------------------------7-7-7-7-7-7-7-7-----------------|
--0-0-0-0-0-0-0-0-6-6-6-6-6-6-6-6-----------------6-6-6-6-6-6-6-6-|


------------------------------------------------------------------|
------------------------------------------------------------------|
----------------------------------7-7-7-7-7-7-7-7-----------------|
--0-0-0-0-0-0-0-0-6-6-6-6-6-6-6-6-----------------6-6-6-6-6-6-6-6-|


------------------------------------------------------------------|
------------------------------------------------------------------|
--------------------------------------------------7-7-7-7---------|
--0-0-0-0-0-0-0-0-0-0-0-0-0-0-0-0-6-6-6-6-6-6-6-6---------6-6-6-6-|


------------------------------------------------------------------|
------------------------------------------------------------------|
--------------------------------------------------7-7-7-7---------|
--0-0-0-0-0-0-0-0-0-0-0-0-0-0-0-0-6-6-6-6-6-6-6-6---------6-6-6-6-|


------------------------------------------------------------------|
------------------------------------------------------------------|
--------------------------------------------------7-7-7-7---------|
--0-0-0-0-0-0-0-0-0-0-0-0-0-0-0-0-6-6-6-6-6-6-6-6---------6-6-6-6-|


------------------------------------------------------------------|
------------------------------------------------------------------|
--------------------------------------------------7-7-7-7---------|
--0-0-0-0-0-0-0-0-0-0-0-0-0-0-0-0-6-6-6-6-6-6-6-6---------6-6-6-6-|


------------------------------------------------------------------|
------------------------------------------------------------------|
----------------------------------7-7-7-7-7-7-7-7-----------------|
--0-0-0-0-0-0-0-0-6-6-6-6-6-6-6-6-----------------6-6-6-6-6-6-6-6-|


------------------------------------------------------------------|
------------------------------------------------------------------|
----------------------------------7-7-7-7-7-7-7-7-----------------|
--0-0-0-0-0-0-0-0-6-6-6-6-6-6-6-6-----------------6-6-6-6-6-6-6-6-|


------------------------------------------------------------------|
------------------------------------------------------------------|
----------------------------------7-7-7-7-7-7-7-7-----------------|
--0-0-0-0-0-0-0-0-6-6-6-6-6-6-6-6-----------------6-6-6-6-6-6-6-6-|


------------------------------------------------------------------|
------------------------------------------------------------------|
----------------------------------7-7-7-7-7-7-7-7-----------------|
--0-0-0-0-0-0-0-0-6-6-6-6-6-6-6-6-----------------6-6-6-6-6-6-6-6-|


-------------------|------|---------------------|---------------------|
-------------------|------|---------------------|---------------------|
-------------------|------|---------------------|---------------------|
--0----------------|------|--0--------1------0--|--0----0----1--------|


---------------------|---------------------||----------------------|
---------------------|---------------------||*---------------------|
---------------------|---------------------||*---------------------|
--0--------1------0--|--0----0----1--------||---0--------1------0--|


           9x
----------------------||---------------------|---------------------|
---------------------*||---------------------|---------------------|
---------------------*||---------------------|---------------------|
--0----0----1---------||--0--------1------0--|--0----0----1--------|


---------------------|---------------------|---------------------|
---------------------|---------------------|---------------------|
---------------------|---------------------|---------------------|
--0--------1------0--|--0----0----1--------|--0--------1------0--|


---------------------|---------------------|---------------------|
---------------------|---------------------|---------------------|
---------------------|---------------------|---------------------|
--0----0----1--------|--0--------1------0--|--0----0----1--------|


---------------------|---------------------|---------------------|
---------------------|---------------------|---------------------|
---------------------|---------------------|---------------------|
--0--------1------0--|--0----0----1--------|--0--------1------0--|


---------------------|---------------------|---------------------|
---------------------|---------------------|---------------------|
---------------------|---------------------|---------------------|
--0----0----1--------|--0--------1------0--|--0----0----1--------|


---------------------|---------------------|---------------------|
---------------------|---------------------|---------------------|
---------------------|---------------------|---------------------|
--0--------1------0--|--0----0----1--------|--0--------1------0--|


---------------------|---------------------|---------------------|
---------------------|---------------------|---------------------|
---------------------|---------------------|---------------------|
--0----0----1--------|--0--------1------0--|--0----0----1--------|


                       6x
|----------------------|----------------------||-----------|-----------||
|*---------------------|---------------------*||*----------|----------*||
|*---------------------|---------------------*||*----------|----------*||
|---0--------1------0--|--0----0----1---------||-----------|-----------||


-------------------------------------------------------------------|
*------------------------------------------------------------------|
*----------------------------------7-7-7-7-7-7-7-7-----------------|
---0-0-0-0-0-0-0-0-6-6-6-6-6-6-6-6-----------------6-6-6-6-6-6-6-6-|


                                  3x
-------------------------------------------------------------------||
------------------------------------------------------------------*||
----------------------------------7-7-7-7-7-7-7-7-----------------*||
--0-0-0-0-0-0-0-0-6-6-6-6-6-6-6-6-----------------6-6-6-6-6-6-6-6--||


------------------------------------------------------------------|
------------------------------------------------------------------|
----------------------------------7-7-7-7-7-7-7-7-----------------|
--0-0-0-0-0-0-0-0-6-6-6-6-6-6-6-6-----------------6-6-6-6-6-6-6-6-|


------------------------------------------------------------------|
------------------------------------------------------------------|
----------------------------------7-7-7-7-7-7-7-7-----------------|
--0-0-0-0-0-0-0-0-6-6-6-6-6-6-6-6-----------------6-6-6-6-6-6-6-6-|


------------------------------------------------------------------|
------------------------------------------------------------------|
----------------------------------7-7-7-7-7-7-7-7-----------------|
--0-0-0-0-0-0-0-0-6-6-6-6-6-6-6-6-----------------6-6-6-6-6-6-6-6-|


---------------------------------------------------------|-------------------||
---------------------------------------------------------|-------------------||
----------------------------------7-7-7-7-7-7-7-7--------|-------------------||
--0-0-0-0-0-0-0-0-6-6-6-6-6-6-6-6-----------------6-6/---|--0----------------||

Almost there ...

Sign in to get your own page with links to favourite songs and more. You are just one click away...

Login with Facebook Login with Google