Log in

One click and you are in

Login with Facebook Login with Google

Why sign up and log in

Guitar Tabs Explorer
Matthew Mayfield guitar tabs for Track you down

Guitar tabs

Track You Down
Matthew Mayfield
Drop A chord diagramD MajorD Tuning


Intro:
e|-------------------------------|----------------------|
B|-------------------------------|-------------------1~-|
G|-----------------------5/7-7-7-|-------------------2~-|
D|----------3~-----------x-x-x-x-|---------3~--------0~-|
A|-0--0h3h5----5---0--0--3/5-5-5-|-0--0h3h5----5--0-----|
D|-0---------------0--0----------|-0--------------0-----|

e|----------------------------------------|
B|-----------------------------3--3--3----|
G|-----------------------------0--0--2----|
D|----------3~----------3\2-0--0--0--2----|
A|-0--0h3h5-----5--0--0--------3--2--0--3-|
D|-0---------------0--0-----------------3-|


Verse:
e|------------------|               e|----------------------|
B|------------------|               B|----------------------|
G|------------------|               G|----------------------|
D|------------------| x7            D|----------------------|
A|---------------5--|               A|----------------------|
D|--0~-x-x-5h7-x----|               D|--3~--x-x-5~--x-x-----|
'sweet lavender on an overcoat..'


Chorus:
e|-------xxx--|-----------|----------|-------------|
B|--1/3--xxx--|-1/3-------|--1/3-----|-3--3--3-----|
G|--0/0--xxx--|-0/0-------|--0/0-----|-0--0--2-----|
D|--0/0--xxx--|-0/0-------|--0/0-----|-x--0--2-----|
A|--x/x--xxx--|-x/x-8-7-5-|--x/x-----|-3--2--0--3--|
D|--3/5--xxx--|-3/5-------|--3/5-----|----------3--|
'you can knock me out cold..'

Intro:
e|-------------------------------|----------------------|
B|-------------------------------|-------------------1~-|
G|-----------------------5/7-7-7-|-------------------2~-|
D|----------3~-----------x-x-x-x-|---------3~--------0~-|
A|-0--0h3h5----5---0--0--3/5-5-5-|-0--0h3h5----5--0-----|
D|-0---------------0--0----------|-0--------------0-----|

e|-----------------------------------------|
B|-----------------------------3--3--3-----|
G|-----------------------------0--0--2-----|
D|---------3~-----------3\2-0--0--0--2-----|
A|-0--0h3h5----5--0--0---------3--2--0--3--|
D|-0--------------0--0------------------3--|


Verse:

e|------------------|               e|----------------------|
B|------------------|               B|----------------------|
G|------------------|               G|----------------------|
D|------------------| x7            D|----------------------|
A|---------------5--|               A|----------------------|
D|--0~-x-x-5h7-x----|               D|--3~--x-x-5~--x-x-----|
'it took a heart of stone..'


Chorus:
e|-------xxx--|-----------|----------|-------------|
B|--1/3--xxx--|-1/3-------|--1/3-----|-3--3--3-----|
G|--0/0--xxx--|-0/0-------|--0/0-----|-0--0--2-----|
D|--0/0--xxx--|-0/0-------|--0/0-----|-x--0--2-----|
A|--x/x--xxx--|-x/x-8-7-5-|--x/x-----|-3--2--0--3--|
D|--3/5--xxx--|-3/5-------|--3/5-----|----------3--|
'You can talk all you want..'


Intro:
e|-------------------------------|----------------------|
B|-------------------------------|-------------------1~-|
G|-----------------------5/7-7-7-|-------------------2~-|
D|----------3~-----------x-x-x-x-|---------3~--------0~-|
A|-0--0h3h5----5---0--0--3/5-5-5-|-0--0h3h5----5---0----|
D|-0---------------0--0----------|-0---------------0----|

e|----------------------------------------|
B|----------------------------3--3--3-----|
G|----------------------------0--0--2-----|
D|---------3~----------3\2-0--0--0--2-----|
A|-0-0h3h5----5--0--0---------3--2--0--3--|
D|-0-------------0--0------------------3--|

Interlude:
e|----------------------------------|
B|----------------------------------|
G|----------------------------------|
D|----------------------------------| x2
A|--5-5-7-5-8-5-7-5-5-7-5-8-5-7-5-5-|
D|--5-5-5-5-5-5-5-5-5-5-5-5-5-5-5-5-|

e|------------------------------------|
B|------------------------------------|
G|------------------------------------|
D|------------------------------------| x2
A|--7-7-9-7-10-7-9-7-7-9-7-10-7-9-7-7-|
D|--7-7-7-7--7-7-7-7-7-7-7--7-7-7-7-7-|

e|----------------------------------|
B|----------------------------------|
G|----------------------------------|
D|----------------------------------| x2
A|--5-5-7-5-8-5-7-5-5-7-5-8-5-7-5-5-|
D|--5-5-5-5-5-5-5-5-5-5-5-5-5-5-5-5-|

e|------------------------------------|--------------|
B|------------------------------------|--3--3--3-----|
G|------------------------------------|--0--0--2-----|
D|------------------------------------|--x--0--2-----|
A|--7-7-9-7-10-7-9-7-7-9-7-10-7-9-7-7-|--3--2--0--3--|
D|--7-7-7-7--7-7-7-7-7-7-7--7-7-7-7-7-|-----------3--|


Bridge:
e|-----------------|
B|--3---3---3---3--|
G|--2---2---2---2--|
D|--0---0---0---0--| x5 (keep holding last chord on last time, 'your grave')
A|--0---3---2---1--|
D|--0--------------|
'Your mother, your father..'


Chorus:
e|-------xxx--|-----------|----------|-------------|
B|--1/3--xxx--|-1/3-------|--1/3-----|-3--3--3-----|
G|--0/0--xxx--|-0/0-------|--0/0-----|-0--0--2-----|
D|--0/0--xxx--|-0/0-------|--0/0-----|-x--0--2-----|
A|--x/x--xxx--|-x/x-8-7-5-|--x/x-----|-3--2--0--3--|
D|--3/5--xxx--|-3/5-------|--3/5-----|----------3--|
'I'll lock you up cold..'


Outro:
e|---------1^----------------|-----------3^p1----|
B|---0h1h3-----3--1--x-1h3~--|----0h1h3-------3--|
G|---------------------------|-------------------|
D|--0------------------------|--0----------------|
A|---------------------------|-------------------|
D|---------------------------|-------------------|

↓ Add and view comments below ↓

What do you think about this song and these tabs?

Add your comments, questions, rant or a thumbs up below.

Almost there ...

Sign in to get your own page with links to favourite songs and more. You are just one click away...

Login with Facebook Login with Google