Log in

One click and you are in

Login with Facebook Login with Google

Why sign up and log in

Guitar Tabs Explorer
John Mayer tabs for Why georgia

Guitar tabs

I wanted to make the appropriate corrections
to this song.  I've spent a lot of time
working on this song.  Hope it helps!
Album:  Room for Squares

Track Title: Why Georgia


Intro: Standard Tuning

x
x : hand slap
x


Play (8 times)
e------------------------------------
b----3---x0--------------------------
g----0h2-x0------0--x------0---------
d--------x----4-----x----4-----------
a----------0--5-----x--5-------------
e--3---------------------------------

Play (2 times)
e------------------------------------
b-----3---3--------3-----3-x---3-----
g-----0---0--------0-----0-x---0h4---
d-----2---2h5p2----2h5---2-x--2------
a--3----3--------3-----3-------------
e------------------------------------

Play (6 times)
e------------------------------------
b----3---x0--------------------------
g----0h2-x0------0--x------0---------
d--------x----4-----x----4-----------
a----------0--5-----x--5-------------
e--3---------------------------------

Play (2 times)
e------------------------------------
b-----3---3--------3-----3-x---3-----
g-----0---0--------0-----0-x---0h4---
d-----2---2h5p2----2h5---2-x--2------
a--3----3--------3-----3-------------
e------------------------------------

Play (2 times)
e------------------------------------
b----3---x0--------------------------
g----0h2-x0------0--x------0---------
d--------x----4-----x----4-----------
a----------0--5-----x--5-------------
e--3---------------------------------

Play (1 time) "I wonder sometimes..."
e--0-------0-------0-------0---------
b--0-------3-------3-------3---------
g--0-------2-------0-------0---------
d--2-------0-------0-------2---------
a--2-------0-------0-------3---------
e--0-------2-------3-------0---------

Play (1 time)  "Of a still verdictless..."
e--0-------0-------0---0-------------
b--0-------3-------3---3-------------
g--0-------2-------0---2-------------
d--2-------0-------0---2-------------
a--2-------0-------0---0-------------
e--0-------2-------3---0-------------

Play (1 time)   "Am i livin..."
   1 e + a 2 e + a 3 e + a 4 e + a
e--0-------0-----0-------------------
b--3-------2-----3-------------------
g--2-------2-----0-------------------
d--0-------2-----0-------------------
a--0-------0-----0-------------------
e----------------3-------------------

Play (1 time)   "Am i livin..."
   1 e + a 2 e + a 3 e + a 4 e + a
e--0-------0-----0-------------------
b--3-------2-----0-------------------
g--2-------2-----0-------------------
d--0-------2-----2-------------------
a--0-------0-----2-------------------
e----------------0-------------------

Play (1 time)   "Am i livin..."
   1 e + a 2 e + a 3 e + a 4 e + a
e--0-------0-----0-------------------
b--3-------2-----3-------------------
g--2-------2-----0-------------------
d--0-------2-----0-------------------
a--0-------0-----0-------------------
e----------------3-------------------

Play (1 time)    "Why Georgia..."
e--0---------0-----------------------
b--1---------1-----------------------
g--0---------0-----------------------
d--3---------2-----------------------
a--3---------3-----------------------
e--1---------0-----------------------

Play (8 times)  similar to the beginning
   1 + 2 + 3 + 4 + 1 + 2 + 3 + 4 +
e--0---0-----0-0-0-0-0-0-0---0-0-0---
b--3---3-----3-3-3-3-3-3-3---3-3-3---
g--0---0h2---0-0-0-0-0-0-0---0-0-0---
d--0---0-----0-0-0-4-4-4-5---4-4-4---
a--0---0-----0-0-0-5-5-5-5---5-5-5---
e--3---3-----3-3-3-------------------

Play (2 times)
   1 + 2 + 3 + 4 + 1 + 2 + 3 + 4 +
e--0---0-0-0-----0-0-----0-0-0-0-----
b--3---3-3-3-----3-3-----3-3-3-3-----
g--0---0-0-0-----0-0-----0-0-0-0h4---
d--2---2-2-2h5p2-2-2h5---2-2-2-2-----
a--3---3-3-3-----3-3-----3-3-3-3-----
e------------------------------------

Play (2 times)
   1 + 2 + 3 + 4 + 1 + 2 + 3 + 4 +
e--0---0-----0-0-0-0-0-0-0---0-0-0---
b--3---3-----3-3-3-3-3-3-3---3-3-3---
g--0---0h2---0-0-0-0-0-0-0---0-0-0---
d--0---0-----0-0-0-4-4-4-5---4-4-4---
a--0---0-----0-0-0-5-5-5-5---5-5-5---
e--3---3-----3-3-3-------------------

Play (2 times)
   1 + 2 + 3 + 4 + 1 + 2 + 3 + 4 +
e--0---0-0-0-----0-0-----0-0-0-0-----
b--3---3-3-3-----3-3-----3-3-3-3-----
g--0---0-0-0-----0-0-----0-0-0-0h4---
d--2---2-2-2h5p2-2-2h5---2-2-2-2-----
a--3---3-3-3-----3-3-----3-3-3-3-----
e------------------------------------

Play (2 times)
   1 + 2 + 3 + 4 + 1 + 2 + 3 + 4 +
e--0---0-----0-0-0-0-0-0-0---0-0-0---
b--3---3-----3-3-3-3-3-3-3---3-3-3---
g--0---0h2---0-0-0-0-0-0-0---0-0-0---
d--0---0-----0-0-0-4-4-4-5---4-4-4---
a--0---0-----0-0-0-5-5-5-5---5-5-5---
e--3---3-----3-3-3-------------------

Play (1 time) "I wonder sometimes..."
e--0-------0-------0-------0---------
b--0-------3-------3-------3---------
g--0-------2-------0-------0---------
d--2-------0-------0-------2---------
a--2-------0-------0-------3---------
e--0-------2-------3-------0---------

Play (1 time)  "Of a still verdictless..."
e--0-------0-------0---0-------------
b--0-------3-------3---3-------------
g--0-------2-------0---2-------------
d--2-------0-------0---2-------------
a--2-------0-------0---0-------------
e--0-------2-------3---0-------------

Play (1 time)   "Am i livin..."
   1 e + a 2 e + a 3 e + a 4 e + a
e--0-------0-----0-------------------
b--3-------2-----3-------------------
g--2-------2-----0-------------------
d--0-------2-----0-------------------
a--0-------0-----0-------------------
e----------------3-------------------

Play (1 time)   "Am i livin..."
   1 e + a 2 e + a 3 e + a 4 e + a
e--0-------0-----0-------------------
b--3-------2-----0-------------------
g--2-------2-----0-------------------
d--0-------2-----2-------------------
a--0-------0-----2-------------------
e----------------0-------------------

Play (1 time)   "Am i livin..."
   1 e + a 2 e + a 3 e + a 4 e + a
e--0-------0-----0-------------------
b--3-------2-----3-------------------
g--2-------2-----0-------------------
d--0-------2-----0-------------------
a--0-------0-----0-------------------
e----------------3-------------------

Play (1 time)  *After second chorus*
Strum last 3 chords (3 times)
e--0------------0------0--0--0-------
b--1------------3------3--3--3-------
g--0------------0------0--0--0-------
d--3------------0------4--2--0-------
a--3------------0------0--0--0-------
e--1------------3------3--3--3-------

Play (2 times)  "So what,so i've..."
e------------------------------------
b-----------1-1-1----3-3-3----1-1-1--
g--1-1-5----3-3-5----5-5-7----3-3-5--
d--3-3-3----3-3-3----5-5-5----3-3-3--
a--3-3-3----1-1-1----3-3-3----1-1-1--
e--1-1-1-----------------------------

Play (2 times)  "Dont believe me..."
e--0-0-----0-0-----0-0-----0-0-------
b--3-3-----3-3-----3-3-----3-3-------
g--0-0-----0-0-----0-0-----0-0-------
d--0-0-----0-0-----4-4-----0-0-------
a--0-0-----3-3-----5-5-----3-3-------
e--3-3-------------------------------

Play (1 time)   "When i say..."
e--7---5-----------------------------
b--8---5---3---1---------------------
g--9---7---3---0---------------------
d--9---0---0---0---------------------
a--x---0---x---x---------------------
e--0-------3---1---------------------

Play (8 times)
e------------------------------------
b----3---x0--------------------------
g----0h2-x0------0--x------0---------
d--------x----4-----x----4-----------
a----------0--5-----x--5-------------
e--3---------------------------------

Play (2 times)
e------------------------------------
b--1-----6---------------------------
g--3-----5-----7---------------------
d--3-----8-----10--------------------
a--x-----x-----x---------------------
e--1-----6-----8---------------------

Play (2 times)
   1 + 2 + 3 + 4 + 1 + 2 + 3 + 4 +
e--0---0-----0-0-0-0-0-0-0---0-0-0---
b--3---3-----3-3-3-3-3-3-3---3-3-3---
g--0---0h2---0-0-0-0-0-0-0---0-0-0---
d--0---0-----0-0-0-4-4-4-5---4-4-4---
a--0---0-----0-0-0-5-5-5-5---5-5-5---
e--3---3-----3-3-3-------------------

Play (1 time)
e--0-----0-----0-----0---------------
b--0-----3-----3-----3---------------
g--0-----2-----0-----0---------------
d--2-----0-----0-----0---------------
a--2-----0-----0-----0---------------
e--0-----2-----3-----3---------------

Play (1 time)   "Am i livin..."
   1 e + a 2 e + a 3 e + a 4 e + a
e--0-------0-----0-------------------
b--3-------2-----3-------------------
g--2-------2-----0-------------------
d--0-------2-----0-------------------
a--0-------0-----0-------------------
e----------------3-------------------

Play (1 time)   "Am i livin..."
   1 e + a 2 e + a 3 e + a 4 e + a
e--0-------0-----0-------------------
b--3-------2-----0-------------------
g--2-------2-----0-------------------
d--0-------2-----2-------------------
a--0-------0-----2-------------------
e----------------0-------------------

Play (1 time)   "Am i livin..."
   1 e + a 2 e + a 3 e + a 4 e + a
e--0-------0-----0-------------------
b--3-------2-----3-------------------
g--2-------2-----0-------------------
d--0-------2-----0-------------------
a--0-------0-----0-------------------
e----------------3-------------------

Play (1 time)    "Why Georgia..."
e--0---0---0---0---0---0---0---0-----
b--1---1---1---1---1---1---1---3-----
g--0---0---0---0---0---0---0---0-----
d--3---3---3---3---3---3---3---0-----
a--3---3---3---3---3---3---3---0-----
e--1---1---1---1---1---1---1---3-----

I know this is long but I wanted to
make sure it was very very easy to
understand!  Hope you enjoy playing,
and email me any questions or comments.
Blindscatr@aol.com     ~ Drew Russell

Other versions of Why Georgia

Why georgiaChords

Almost there ...

Sign in to get your own page with links to favourite songs and more. You are just one click away...

Login with Facebook Login with Google