Log in

One click and you are in

Login with Facebook Login with Google

Why sign up and log in

Guitar Tabs Explorer
John Mayer tabs for Walt graces submarine test january 1967

Walt Graces Submarine Test January 1967 tab by John Mayer

John Mayer tabs for Walt graces submarine test january 1967

Guitar tabs

-----------------------------------------------------------------------------
           WALT GRACE'S SUBMARINE TEST, JANUARY 1967 - John Mayer
-----------------------------------------------------------------------------

Tabbed by: Michael Gilbert
E-Mail: mjgj96@aim.com

Capo on the 6th fret (tabs are in relation to the capo)

( There is a great video out there of a guy playing it with capo on the 5th fret to go
in sync with his voice. It would help a lot to check it out here:
http://www.youtube.com/watch v=IQOyA9K4K3M )

Pre-Song Part:

e|-0-0-0-0----------0-0-0-0-----------|
A chord diagramBB|--1-1-1-1-3-3-3-3--1-1-1-1-3-3-3-3--|
A chord diagramG+G|-----------4-4-4-4----------4-4-4-4-|  x3
A chord diagramD MajorD|------------------------------------|
A chord diagramA augmentedA|------------------0---0----2---2----|
A chord diagramE MajorE|-1---1----3---3---------------------|

|-0-0-0-0----------0-0-0-0--------5---3-|
|--1-1-1-1-3-3-3-3--1-1-1-1-------------|
|-----------4-4-4-4-------------4---4---|
|---------------------------3/5-----5---|
|------------------0---0----------------|
|-1---1----3---3------------------------|


Intro:

|----------------------------------------------------|
|-1-----1-----1------------1-----1-----1-------------|
|---0--0--0--0--0--0-2p0--0--0--0--0--0--0--0-2p0--0-|
|----2-----2-----2------2-----2-----2-----2------2---|
|-3------------------0-----3------------------0------|
|----------------------------------------------------|

|---------------------------------------------------|
|-1-----1-----1------------1-----1-----1-----1------|
|---0--0--0--0--0--0-2p0--0--0--0--0--0--0--0--0--0-|
|----2-----2-----2------2-----2-----2-----2-----2---|
|-3------------------0-----3------------------------|
|---------------------------------------------------|

Verse:

|---------------------------------------------------|
|-1-----1-----1-----1--------3-----3-----3-----3----|
|---0--0--0--0--0--0--0--0-2--2--2--2--2--2--2--2---|
|----2-----2-----2-----2--------3-----3-----3-----3-|
|-3-------------------------------------------------|
|--------------------------1-----------------1------|

|--------------------------------------------------|
|---1-----1-----1-----1-----3-----3-----3-----3----|
|-2--2--2--2--2--2--0--0--2--2--2--2--2--2--2--2---|
|------2-----2-----2-----0-----3-----3-----3-----3-|
|-0-----0-----0------------------------------------|
|-------------------3-----1-----1-----1-----1------|

|---------------------------------------------------|
|-1-----1-----1-----1--------3-----3-----3-----3----|
|---0--0--0--0--0--0--0--0-2--2--2--2--2--2--2--2---|
|----2-----2-----2-----2--------3-----3-----3-----3-|
|-3-------------------------------------------------|
|--------------------------1-----------------1------|

|--------------------------------------------------|
|---1-----1-----1-----1-----3-----3-----3-----3----|
|-2--2--2--2--0--0--0--0--2--2--2--2--2--2--2--2---|
|------2-----2-----0-----0-----3-----3-----3-----3-|
|-0-----0------------------------------------------|
|-------------3-----3-----1-----1-----1-----1------|


Chorus:

|--------------------------------------------------|
|-3--------------1-----1-----0-----0-----0-----0---|
|---2--2--2--2--0--0--0--0--0--0--0--0--0--0--0--0-|  x2
|----0-----0--2-----2-----0-----0-----0-----0------|
|-0-----------3------------------------------------|
|-------------------------3------------------------|

|--------------------------------------------------|
|----1-----1-----1-----1-----1-----1-----1-----1---|
|---0--0--0--0--2--2--2--2--0--0--0--0--0--0--0--0-|  x2
|-2-----2-----3-----3-----0-----0-----0-----0------|
|-3------------------------------------------------|
|-------------1-----------3------------------------|

|--------------------------------------------------|
|----1-----1-----1-----1-----1-----1-----3-----3---|
|---0--0--0--0--2--2--2--2--2--2--2--2--2--2--2--2-|
|-2-----2-----3-----3-----2-----2-----0-----0------|
|-3-----------------------0------------------------|
|-------------1-----------------------2------------|

|-------------------------------------------------|
|----1-----1-----1-----1-----0-----0-----1--------|
|---2--2--2--2--2--2--2--2--0--0--0--0--0--0------|
|-3-----3-----3-----3-----0-----0-----0-----0-----|
|-------------------------------------------------|
|-1-----------------------3-----------------3-----|


Intro Part:

|----------------------------------------------------|
|-1-----1-----1------------1-----1-----1-------------|
|---0--0--0--0--0--0-2p0--0--0--0--0--0--0--0-2p0--0-|
|----2-----2-----2------2-----2-----2-----2------2---|
|-3------------------0-----3------------------0------|
|----------------------------------------------------|

|---------------------------------------------------|
|-1-----1-----1------------1-----1-----1-----1------|
|---0--0--0--0--0--0-2p0--0--0--0--0--0--0--0--0--0-|
|----2-----2-----2------2-----2-----2-----2-----2---|
|-3------------------0-----3------------------------|
|---------------------------------------------------|


Verse:

|---------------------------------------------------|
|-1-----1-----1-----1--------3-----3-----3-----3----|
|---0--0--0--0--0--0--0--0-2--2--2--2--2--2--2--2---|
|----2-----2-----2-----2--------3-----3-----3-----3-|
|-3-------------------------------------------------|
|--------------------------1-----------------1------|

|--------------------------------------------------|
|---1-----1-----1-----1-----3-----3-----3-----3----|
|-2--2--2--2--2--2--0--0--2--2--2--2--2--2--2--2---|
|------2-----2-----2-----0-----3-----3-----3-----3-|
|-0-----0-----0------------------------------------|
|-------------------3-----1-----1-----1-----1------|

|---------------------------------------------------|
|-1-----1-----1-----1--------3-----3-----3-----3----|
|---0--0--0--0--0--0--0--0-2--2--2--2--2--2--2--2---|
|----2-----2-----2-----2--------3-----3-----3-----3-|
|-3-------------------------------------------------|
|--------------------------1-----------------1------|

|--------------------------------------------------|
|---1-----1-----1-----1-----3-----3-----3-----3----|
|-2--2--2--2--0--0--0--0--2--2--2--2--2--2--2--2---|
|------2-----2-----0-----0-----3-----3-----3-----3-|
|-0-----0------------------------------------------|
|-------------3-----3-----1-----1-----1-----1------|


Chorus:

|--------------------------------------------------|
|-3--------------1-----1-----0-----0-----0-----0---|
|---2--2--2--2--0--0--0--0--0--0--0--0--0--0--0--0-|  x2
|----0-----0--2-----2-----0-----0-----0-----0------|
|-0-----------3------------------------------------|
|-------------------------3------------------------|

|--------------------------------------------------|
|----1-----1-----1-----1-----1-----1-----1-----1---|
|---0--0--0--0--2--2--2--2--0--0--0--0--0--0--0--0-|  x2
|-2-----2-----3-----3-----0-----0-----0-----0------|
|-3------------------------------------------------|
|-------------1-----------3------------------------|

|--------------------------------------------------|
|----1-----1-----1-----1-----1-----1-----3-----3---|
|---0--0--0--0--2--2--2--2--2--2--2--2--2--2--2--2-|
|-2-----2-----3-----3-----2-----2-----0-----0------|
|-3-----------------------0------------------------|
|-------------1-----------------------2------------|

|-------------------------------------------------|
|----1-----1-----1-----1-----0-----0-----1--------|
|---2--2--2--2--2--2--2--2--0--0--0--0--0--0------|
|-3-----3-----3-----3-----0-----0-----0-----0-----|
|-------------------------------------------------|
|-1-----------------------3-----------------3-----|


Intro Part:

|----------------------------------------------------|
|-1-----1-----1------------1-----1-----1-------------|
|---0--0--0--0--0--0-2p0--0--0--0--0--0--0--0-2p0--0-|
|----2-----2-----2------2-----2-----2-----2------2---|
|-3------------------0-----3------------------0------|
|----------------------------------------------------|

|---------------------------------------------------|
|-1-----1-----1------------1-----1-----1-----1------|
|---0--0--0--0--0--0-2p0--0--0--0--0--0--0--0--0--0-|
|----2-----2-----2------2-----2-----2-----2-----2---|
|-3------------------0-----3------------------------|
|---------------------------------------------------|


Bridge (chorus w/o singing):

|--------------------------------------------------|
|-3--------------1-----1-----0-----0-----0-----0---|
|---2--2--2--2--0--0--0--0--0--0--0--0--0--0--0--0-|  x2
|----0-----0--2-----2-----0-----0-----0-----0------|
|-0-----------3------------------------------------|
|-------------------------3------------------------|

|--------------------------------------------------|
|----1-----1-----1-----1-----1-----1-----1-----1---|
|---0--0--0--0--2--2--2--2--0--0--0--0--0--0--0--0-|  x2
|-2-----2-----3-----3-----0-----0-----0-----0------|
|-3------------------------------------------------|
|-------------1-----------3------------------------|

|--------------------------------------------------|
|----1-----1-----1-----1-----1-----1-----3-----3---|
|---0--0--0--0--2--2--2--2--2--2--2--2--2--2--2--2-|
|-2-----2-----3-----3-----2-----2-----0-----0------|
|-3-----------------------0------------------------|
|-------------1-----------------------2------------|

|-------------------------------------------------|
|----1-----1-----1-----1-----0-----0-----1--------|
|---2--2--2--2--2--2--2--2--0--0--0--0--0--0------|
|-3-----3-----3-----3-----0-----0-----0-----0-----|
|-------------------------------------------------|
|-1-----------------------3-----------------3-----|


Bridge Outro:

|----------------------------------------------------|
|-1-----1-----1------------1-----1-----1-------------|
|---0--0--0--0--0--0-2p0--0--0--0--0--0--0--0-2p0--0-|
|----2-----2-----2------2-----2-----2-----2------2---|
|-3------------------0-----3------------------0------|
|----------------------------------------------------|


Verse:

|---------------------------------------------------|
|-1-----1-----1-----1--------3-----3-----3-----3----|
|---0--0--0--0--0--0--0--0-2--2--2--2--2--2--2--2---|
|----2-----2-----2-----2--------3-----3-----3-----3-|
|-3-------------------------------------------------|
|--------------------------1-----------------1------|

|--------------------------------------------------|
|---1-----1-----1-----1-----3-----3-----3-----3----|
|-2--2--2--2--2--2--0--0--2--2--2--2--2--2--2--2---|
|------2-----2-----2-----0-----3-----3-----3-----3-|
|-0-----0-----0------------------------------------|
|-------------------3-----1-----1-----1-----1------|

|---------------------------------------------------|
|-1-----1-----1-----1--------3-----3-----3-----3----|
|---0--0--0--0--0--0--0--0-2--2--2--2--2--2--2--2---|
|----2-----2-----2-----2--------3-----3-----3-----3-|
|-3-------------------------------------------------|
|--------------------------1-----------------1------|

|--------------------------------------------------|
|---1-----1-----1-----1-----3-----3-----3-----3----|
|-2--2--2--2--0--0--0--0--2--2--2--2--2--2--2--2---|
|------2-----2-----0-----0-----3-----3-----3-----3-|
|-0-----0------------------------------------------|
|-------------3-----3-----1-----1-----1-----1------|


Chorus:

|--------------------------------------------------|
|-3--------------1-----1-----0-----0-----0-----0---|
|---2--2--2--2--0--0--0--0--0--0--0--0--0--0--0--0-|  x2
|----0-----0--2-----2-----0-----0-----0-----0------|
|-0-----------3------------------------------------|
|-------------------------3------------------------|

|--------------------------------------------------|
|----1-----1-----1-----1-----1-----1-----1-----1---|
|---0--0--0--0--2--2--2--2--0--0--0--0--0--0--0--0-|  x2
|-2-----2-----3-----3-----0-----0-----0-----0------|
|-3------------------------------------------------|
|-------------1-----------3------------------------|

|--------------------------------------------------|
|----1-----1-----1-----1-----1-----1-----3-----3---|
|---0--0--0--0--2--2--2--2--2--2--2--2--2--2--2--2-|
|-2-----2-----3-----3-----2-----2-----0-----0------|
|-3-----------------------0------------------------|
|-------------1-----------------------2------------|

|-------------------------------------------------|
|----1-----1-----1-----1-----0-----0-----1--------|
|---2--2--2--2--2--2--2--2--0--0--0--0--0--0------|
|-3-----3-----3-----3-----0-----0-----0-----0-----|
|-------------------------------------------------|
|-1-----------------------3-----------------3-----|


Outro:

|----------------------------------------------------|
|-1-----1-----1------------1-----1-----1-------------|
|---0--0--0--0--0--0-2p0--0--0--0--0--0--0--0-2p0--0-|
|----2-----2-----2------2-----2-----2-----2------2---|
|-3------------------0-----3------------------0------|
|----------------------------------------------------|

|----------------------------------------------------|
|-1-----1-----1------------1-----1-----1-----1-----1-|
|---0--0--0--0--0--0-2p0--0--0--0--0--0--0--0--0--0--|
|----2-----2-----2------2-----2-----2-----2-----2----|
|-3------------------0-----3-----------------------3-|
|----------------------------------------------------|

Other versions of Walt Graces Submarine Test January 1967

Walt graces submarine test january 1967Chords

Almost there ...

Sign in to get your own page with links to favourite songs and more. You are just one click away...

Login with Facebook Login with Google