Log in

One click and you are in

Login with Facebook Login with Google

Why sign up and log in

Guitar Tabs Explorer
John Mayer tabs for Stop this train

Guitar tabs

Intro

e----------0------------7----7-----(7)-----5---5-----(5)----0---0-----(0)---|
b---0h3-----------------------------0-----------------0----------------0----|
g--------2-----2/6---------6------6----------6------6---------2------2------|
d---0--------0----------0-------0----------0------0---------0------0--------|
a---------------------------------------------------------------------------|
e---------------------------------------------------------------------------|

Verse / Interlude

e---2----7---7-----7----5---5-----5----0---0----0---|
b---3------0-------0------0-------0------0------0---|
g---0------6-----6--------6-----6--------2----2-----|
d---------------------------------------------------|
a---------------------------------------------------|
e---3----3-----3--------3-----3--------3-----3------|

e----------0------------7----7-----(7)-----5---5-----(5)----0---0-----(0)---|
b---0h3-----------------------------0-----------------0----------------0----|
g--------2-----2/6---------6------6----------6------6---------2------2------|
d---0--------0----------0-------0----------0------0---------0------0--------|
a---------------------------------------------------------------------------|
e---------------------------------------------------------------------------|


Chorus

e---2-----2-----0----0----0---2-----3---2-0------0-----0---------2-0-----0-------|
b---3----3-----3----3----3----3----3----3-3-----3-----3------3---3-3----3---3----|
g---3---3-----3----3----3-----3---3-----3-3----3-----3------2----2-2---2---2-----|
d------0-----0----0----0---------0------------0-----0------0----------0---0------|
a--------------------------------------------------------------------------------|
e---3-------3----3----3-------3-------3------3-----3------2----2-----2---2-------|

e---2------3---2---0------2---------------2-0-------0----0---2-----2------0-----0-----0---|
b---3----3-3---3---3---3--3------3--------3-3------3----3----3----3------3-----3-----3----|
g---2---2----------2--2---2--x-------1------------1----1-----1---1------1-----1-----1-----|
d---0--0-------------0-------x-----0----------------------------0-------------------------|
a----------------------------x------------------------------------------------------------|
e---2--------2-----2------2------0------0-------0-----0------0--------0------0-----0------|

I usually don't transcribe rhythms but in this case, it's a "picked" one,
and the bass notes are important. For each diagonal chord, make a slow down stroke
and quick up stroke (you repeat the high notes).

e---------------------0----------------0-----------------0-------|
b------0-------------0------0---------0------0----------0----0---|
g---7------7---6----6-------6----5---5-------5-----4---4-----4---|
d-----5------5-----5------5---------5------5-------5--5----5-----|
a----------------------------------------------------------------|
e---5----5--------5------5-------5-------5---------5------5------|


"Had a talk with my old man"

e---2---1---0---0-----------------------|
b---3---3---3---3-----------------------|
g---0---3---2---1-----------------------|
d---0---0---0---0----(back to chorus)---|
a---x---x---x---2-----------------------|
e---3---3---2---0-----------------------|


"Once in a while.."

e----------------------------------------------------------|
b---0---2---3---5-----------7---0---3----------------------|
g---0---0---0---0-----------0---5---0----------------------|
d---0---0---0---0---(x3)----7---5---4---(back to chorus)---|
a---x---0---2---4-----------5---x---x----------------------|
e---3---------------------------5---0----------------------|

Other versions of Stop This Train

Stop this trainChords
Stop this train ukuleleChords

Almost there ...

Sign in to get your own page with links to favourite songs and more. You are just one click away...

Login with Facebook Login with Google