Log in

One click and you are in

Login with Facebook Login with Google

Why sign up and log in

Guitar Tabs Explorer
John Mayer tabs for Slow dancing in a burning room

Slow Dancing In A Burning Room tab by John Mayer

John Mayer tabs for Slow dancing in a burning room

Guitar tabs

Tuning: A chord diagramE MajorE Tuning


SLOW DANCING IN A chord diagramA augmentedA BURNING ROOM by JOHN MAYER
GUITAR TAB
ALBUM: The Village Sessions, (2008)


INTRO

       A chord diagramC#m7C#m7                                A chord diagramA augmentedA                 A chord diagramE MajorE
e -------------------4-------------------------------------------|
b ------------5------5----4-h-5--4---4------0-h-2----------------|
g -------------------0----4---4--4-h-6-4----2----------2-----1---|
d -----4-h-6--~------6----------------------2-------2--------2---|
a ----------------4--x--4-------------------0----------------2---|
A chord diagramE MajorE --------------------------------------------------------X--0---|


VERSE

Strumming

silly little moment... storm before ...calm

A chord diagramC#m7C#m7		 	A chord diagramA augmentedA 		 A chord diagramE MajorE

-4-                -0-         -0--|
-5-                -0-         -0--|
-6-                -2-         -1--|
-6-                -2-         -2--|
-4-                -0-         -2--|
-4-              -0-         -0----|


PRE CHORUS (strum/pluck)

(we're going doing down...		..you can see it too)

   	   	    A chord diagramBB		           A chord diagramAsus2Asus2  A chord diagramA augmentedA      A chord diagramE MajorE

		e --------------------------------------------------|
		b -------------------------0-h-2--------------------|
		g -8-h-9-h-8-h-9-h-8-h-9---2------2------1----------|
		d -9-------9-------9-------2-------------2----------|
		a -9-------9-------9-------0-------------2----------|
		A chord diagramE MajorE -7-------7-------7--------------------------------|

use thumb of A chord diagramE MajorE if possible...


Repeat

(we're going doing down...             ..know that we're doomed)

   	   	    A chord diagramBB		           A chord diagramF# minorF#m

		e -------------------------2----|
		b -------------------------2----|
		g -8-h-9-h-8-h-9-h-8-h-9---2----|
		d -9-------9-------9-------4----|
		a -9-------9-------9-------4----|
		A chord diagramE MajorE -7-------7-------7-------2----|


CHORUS
(my dear we're......slow dancing.....bur-  ning room)

       A chord diagramC#m7C#m7                                A chord diagramA augmentedA                 A chord diagramE MajorE
e -------------------4-------------------------------------------|
b ------------5------5----4-h-5--4---4------0-h-2----------------|
g -------------------0----4---4--4-h-6-4----2----------2-----1---|
d -2---4-h-6--~------6----------------------2-------2--------2---|
a ----------------4--x--4-------------------0----------------2---|
A chord diagramE MajorE --------------------------------------------------------X--0---|


OR ALTERNATIVE/VARIATION

         A chord diagramC# minorC#m                 		  A chord diagramA augmentedA      A chord diagramE MajorE

e -------0---------------------------------------------------|
b -------9------------------9----0 h 2-----------------------|
g -------9---------9-----9--9----2--------2------1-----------|
d -------9---------9-h-11--------2-----2---------2-----------|
a -------0--9-h-11---------------0---------------2-----------|
A chord diagramE MajorE -9--9--9------------------------------------x--0-----------|

Almost there ...

Sign in to get your own page with links to favourite songs and more. You are just one click away...

Login with Facebook Login with Google