Log in

One click and you are in

Login with Facebook Login with Google

Why sign up and log in

Guitar Tabs Explorer
John Mayer bass tabs for Slow dancing in a burning room

Slow Dancing In A Burning Room bass tab by John Mayer

John Mayer bass tabs for Slow dancing in a burning room

Bass tabs

John Mayer – Slow dancing in a burning room


Verse riff;
G|----------------|----------------|----------------|----------------|
D|----------------|----------2-----|----------------|-----------696--|
A|-4---x--4-4-4-7-|--------------2/|-4---x--4-4-4-7-|----7-----7---97|
E|----------------|-5--7-0-----2---|----------------|-5----0---------|
Intro;
G|----------------|
D|----------------|
A|--------------2/|
E|----------------|
-Followed by Verse riff played 2x


Verse1 (It's not a silly little moment);
-Play Verse riff 2x


Chorus1 (We're going down);
G|----------------|----------------|----------------|----------------|
D|----------------|----------------|----------------|----------------|
A|-2---2----2-2-2-|-4---4--0--0----|-2---2----2-2-2-|-4---4----------|
E|--------2-------|----------------|--------2-------|--------2--2----|

G|----------------|----------------|
D|----------------|----------------|
A|-4---4----4-4-4-|----7---------2/|
E|--------4-------|-5----0---------|

Pre-verse;
-Play Verse riff 1x


Verse2 (I was the one you always dreamed of);
-Play Verse riff 2x


Chorus2 (We're going down);
- Play as Chorus1

Guitar solo;
-Play Verse riff 1x


Bridge (Go cry about it - why don't you);
G|----------------|----------------|----------------|----------------|
D|----------------|----------------|----------------|----------------|
A|-------2-4---x4-|4-----2--x2-----|-------2-4---x4-|4-----2--x2-----|
E|-2---4----------|------------2---|-2---4----------|------------2---|

G|----------------|----------------|----------------|----------------|
D|----------------|----------------|----------------|----------2-----|
A|-------2-4---x4-|4-----2--x2-0---|-4---x--4-4-4-7-|--------------2/|
E|-2---4----------|----------------|----------------|-5--7-0-----2---|


Outro;
-Play Verse riff 4x fading out

Almost there ...

Sign in to get your own page with links to favourite songs and more. You are just one click away...

Login with Facebook Login with Google