Log in

One click and you are in

Login with Facebook Login with Google

Why sign up and log in

Guitar Tabs Explorer
John Mayer guitar chords for Quiet

Guitar chords

"Quiet"
  by John Mayer
    Tabbed by Tim Cummings


Capo 2nd fret
Intro
e---x-----x----x------x------ r
b---0-----0----0--7---0------ e
g---8-----8----6------8------ p
d---x-----x----x------x------ e
a---x-----x----7------x------ a
E---0--0--x----0------0------ t


Verse
e---x-----x----x------x------ r
b---0-----0----0------0------ e
g---8-----8----9------9------ p
d---x-----x----x------x------ e
a---7-----7----7------7------ a
E---0--0--x----0--0---0------ t


Chorus

------x----x----0-------0
------3----3----0-------0
-----0-----2----1--1h2--1   <--Two Times
----2------0----2-------2
---3-------2----2-------2
---x-------x----0-------0

------x----x----x----x----x----x
------3----3----3----3----3----3
-----0-----2----0----2----0----2  <--Back to Verse
----2------0----x----x----x----x
---3-------2----3----x----x----x
---x-------x----x----2----3----2


Bridge

Chords:
    A chord diagramE9E9   A chord diagramD MajorD   A chord diagramC9C9   A chord diagramG9G9

    3    2    3    3
    3    3    3    3
    0    2    0    0
    2    0    2    0
    2    x    3    2
    0    x    x    3

Almost there ...

Sign in to get your own page with links to favourite songs and more. You are just one click away...

Login with Facebook Login with Google