Log in

One click and you are in

Login with Facebook Login with Google

Why sign up and log in

Guitar Tabs Explorer
John Mayer guitar tabs for Not myself

Guitar tabs

Not myself (John Mayer)
>From "Room For Squares"
Transcribed by Billy Dethrow
This is a fairly simple song listen to the CD for timing. 

Capo first fret
* Don't forget that the chords are relative to the capo. 12 means 13..

Intro

e---3---2---0---0---
b---3---3---8---8---
g---0---0---0---0---
d---0---0---7---x---
a---x---x---8---7---
e---3---2---x---8---

Part 1


Verse

e---3---2---0---0-- ---3---2---0---x---
b---3---3---8---8-- ---3---3---8--(8)--
g---0---0---0---0-- ---0---0---0---0---
d---0---0---7---x-- ---0---0---7---7---
a---x---x---8---7-- ---x---x---8---8---
e---3---2---x---8-- ---3---2---x---6---

Part 2


Chorus

e---3--2--3--2---3--2--3--2---0---0--
b---3--3--3--3---3--3--3--3---3---3--
g---0--0--0--0---0--0--0--0---0---0--
d---0--0--0--0---x--x--x--x---4---x--
a---x--x--x--x---3--3--3--3---5---3--
e---3--3--3--3----------------x---x--
                                    

Part 3

live


e-----------------------------------10---
b-------------15--------10h12p10-----8---
g----------12-----------11-----------9---
d-------14-----------12-------------10---
a------------------------------------x---
e---12------------10----------------(8)--

studio

e--------------------------------------------
b-------------15--------10h12p10----------8--
g----------12--------11-11----11--------9----
d-------14----------------------------10-----
a------------------------------------x-------
e---12------------10----------------8--------


Part 4

e----------------------3------------
b---8---5--10------3---3------------
g---7---4---9------0---0------------
d---7---5---9------x---0---(etc..)--
a---x---x---x------3---x------------
e---7---3---9----------3------------

There has to be a mistake here! (3x545x) I think not sure!?

Part 5

e----------------
b----------------
g----------------
d-------------3--
a-------3--6-----
e---/4-----------


Part 6

(live)

e---2--0--5----------
b---3--3--3----------
g---0--0--0----------
d---0--0--0---(x2)---
a---x--x--x----------
e---3--3--3----------

for Carolyn

Other versions of Not Myself

Not myself (Ver. 2)Chords

Almost there ...

Sign in to get your own page with links to favourite songs and more. You are just one click away...

Login with Facebook Login with Google