Log in

One click and you are in

Login with Facebook Login with Google

Why sign up and log in

Guitar Tabs Explorer
John Mayer guitar tabs for No such thing

Guitar tabs with lyrics

"No Such Thing"

John Mayer
Room for Squares
-------------------- -------------------0-
-------------------- -------------------0-
-----11-----11---11- -----11-----11-11----
-----13-----13---13- -----13-----13-11-14-
-----11-----11---11- -----11-----11-11-11-
-0-0----0-0----0---- -0-0----0-0----------

------0------0----0- ------0------0-------
------0------0----0- ------0------0-------
----(11)------------ ------------------11-
-----14-----14---14- -----14-----14-11-13-
-----11-----11---11- -----11-----11-11-11-
-0-0----0-0----0---- -0-0----0-0----------

repeat w/
electric
12----- ----11-12-- -11----0------
-0----- -----0--0-- --0---12------
-9----- -----9--9-- --9----9------
------- ----------- --------------
------- ----------- --------------
------- ----------- --------------


Verse

"Welcome to the real world....."

syncopated like before

Figure 1
------- ---- ----0-- ---- ------- --- -0-----0----0- ----
------- ---- ----0-- ---- ---7--- --- -0-----0----0- ----
---11-- ---- ---13-- ---- ---9--- --- 14----12---11- ----
---13-- ---- ---11-- ---- ---9--- --- 12----12---12- ----
---11-- ---- -0----- ---- -T----- --- 10----10---10- ----
-0----- ---- ------- ---- -9----- --- -0--0----0---- ----

play first 6 bars of Figure 1 then

"up my sleeve"

---------4--- -------
-1---2---2--- -------
-3---3---3--- -------
-2---2---2--- -------
------------- -------
T2---2---2--- -------


Pre-Chorus

"They love to tell you..."

rhythmic strumming
-0---0--- -0---0----
-0---0--- -0---0----
-4---6--- -9--13----
-2---4--- -7--11----  repeat
-0---0--- -0---0----
--------- ----------

-------- -------
-------- -------
---11--- -------
---13--- -------
---11--- -------
-0------ -------

"but something's better"

-0---- ---- -0--- -0------
-0---- ---- -0--- -0------
-3---- ---- -4--- -4------
-2---- ---- -2--- -2------
-T---- ---- -0--- --------
-2---- ---- ----- -4------

-------------------------- ----
-------------------------- ----
-11-11-11-H--11-11-11-11-- ----
-13-13-11-13-13-13-13-13-- ----
-11-11-11----11-11-11-11-- ----
--0--0--0-----0--0--0--0-- ----


Chorus

"I wanna run through the halls..."

play 4 times - 4th time, hold last chord
--------------------- -------
-----3--------10----- -------
-----5--------12--11- -------
-----5--------10--13- -------
------------------11- -------
-~5--5--5~10--10---0- -------


Verse

Pre-Chorus

Chorus


Bridge

"I am invincible...."

-0--- ----- -0------0- ----
-0--- ----- -0------0- ----
-2--- ----- -6------2- ---- repeat previous 2 bars - twice
-3--- ----- -7------3- ----
----- ----- ---------- ----
-1--- ----- -5------1- ----

-0--- ----- -------
-0--- -0--- -------
-6--- -2--- -------
-7--- -3--- -------
----- ----- -------
-5--- -3--- -------


Solo

play pre-chorus, omit last 2 bars


Chorus

play chorus Figure 8 times


Outro

repeat
-0-------------
-7-------------
-8-------------
-6-------------
(7)------------
-0-------------


Scott Taylor
wonderboymusic@yahoo.com
Florida State University
IM: tromba1B

________________________________________________________________________________

Other versions of No Such Thing

No such thingChords
No such thing (Ver. 2)Tabs

Almost there ...

Sign in to get your own page with links to favourite songs and more. You are just one click away...

Login with Facebook Login with Google