Log in

One click and you are in

Login with Facebook Login with Google

Why sign up and log in

Guitar Tabs Explorer
John Mayer bass tabs for New light

Bass tabs

Intro:

G|---------|---------|--------|---------|---------|---------|----|----|
D|---------|---------|--------|---------|---------|---------|----|----|
A|---------|-5--5-5--|--------|-3--3-2--|---------|-5--5-5--|----|----|
E|-5--5-5--|---------|-3--3-3-|---3-----|-5--5-5--|---------|-3--|----|
Verse:

G|---------|---------|--------|---------|  |---------|---------|--------|--------|
D|---------|---------|--------|---------|  |---------|---------|--------|--------|
A|---------|-5--5-5--|--------|-3--3-2--| x2 |---------|-5--5-5--|--------|-2--2-2-|
E|-5--5-5--|---------|-3--3-3-|---3-----|  |-5--5-5--|---------|-3--3-3-|--------|


Chorus:

G|---------|---------|--------|---------|  |---------|---------|----|----|
D|---------|---------|--------|---------|  |---------|---------|----|----|
A|---------|-5--5-5--|--------|-3--3-2--| x3 |---------|-5--5-5--|----|----|
E|-5--5-5--|---------|-3--3-3-|---3-----|  |-5--5-5--|---------|-3--|----|


Verse:

G|---------|---------|--------|---------|  |---------|---------|--------|--------|
D|---------|---------|--------|---------|  |---------|---------|--------|--------|
A|---------|-5--5-5--|--------|-3--3-2--| x2 |---------|-5--5-5--|--------|-2--2-2-|
E|-5--5-5--|---------|-3--3-3-|---3-----|  |-5--5-5--|---------|-3--3-3-|--------|


Chorus:

G|---------|---------|--------|---------|  |---------|---------|----|----|
D|---------|---------|--------|---------|  |---------|---------|----|----|
A|---------|-5--5-5--|--------|-3--3-2--| x3 |---------|-5--5-5--|----|----|
E|-5--5-5--|---------|-3--3-3-|---3-----|  |-5--5-5--|---------|-3--|----|


Bridge:

G|-----------|-----------|-----------|------------|-----------|------------|-----------|
D|-----------|-----------|-----------|------------|-2-2---2-2-|--2-2-x-2-2-|-----------|
A|-----------|-----------|-3-3-x-3-3-|--3-3-x-3-3-|-----2-----|-2----------|-5-5-x-5-5-|
E|-3-3-x-3-3-|-3-3-x-3-3-|-----------|-3----------|-----------|------------|-----------|

G|--------------|--------|--------|--------|-----------|--------|--------|--------|----------4--|
D|--------------|--------|--------|--------|-----------|--------|--------|--------|-2--4--5-----|
A|--5-5------2--|--------|-5--5-5-|--------|-3-(3)-3-2-|--------|-5--5-5-|--------|--2--2--2--2-|
E|-5------3-5-3-|-5--5-5-|--------|-3--3-3-|-----------|-5--5-5-|--------|-3--3-3-|-------------|


Chorus:

G|---------|---------|--------|---------|
D|---------|---------|--------|---------|
A|---------|-5--5-5--|--------|-3--3-2--| x2
E|-5--5-5--|---------|-3--3-3-|---3-----|


Outro:

G|---------|---------|--------|---------|
D|---------|---------|--------|---------|
A|---------|-5--5-5--|--------|-3--3-2--| x5, fade slowly after 2nd repeat
E|-5--5-5--|---------|-3--3-3-|---3-----|

Almost there ...

Sign in to get your own page with links to favourite songs and more. You are just one click away...

Login with Facebook Login with Google