Log in

One click and you are in

Login with Facebook Login with Google

Why sign up and log in

Guitar Tabs Explorer
John Mayer tabs for Neon

Guitar tabs

drop the low e to a c, and you're good.

Album:  Room for Squares

e----------------------------
b-8----4-----4-----9-----8---
g-10---3-----3-----8-----7---
d------3-----6-----8-----10--
a----------------------------
c-0---(3)---(5)---(8)---(10)-
'()' around number means fretted with thumb.  (Having GIANT thumbs help.)

e--------------------------------------------------
b---8-----------4------------4----------9-------10-
g-----10------3------------3---3------8----------9-  repeats as verse
d-----------3-----5-6----6-------------------10----
a--------------------------------------------------
c-0------(3)---------(5)---------(8)-----(10)------

*right hand technique: slap down with thumb on bass string, pull up with
index finger in constant 16th note pattern


e---------------------------
b-------6~~-----6~~-----4~~- change section: no rythmic right hand
g-----5~~-----5~~-----3~~---
d---8~~-----8~~-----6~~-----
a---------------------------
c--(8)~~---(7)~~---(6)~~----
      ring   ring     ring

"she comes"


second change

e---------------------------------------------------------------
b-------6------6----4----6------------------------------4-------
g-----5------5------3----5------------------------------5-------
d---8------8--------6----8------------------------------6-------
a---------------------------------------------------------------
c--(8)----(7)------(5)--(7)-------------------------------------
 she comes and goes and no one knows, she's slipping... "haaands"

Chorus
e---------------------------|-----------------------------------
b------4--------6----4------|-----4-----6-----4----11---9-------
d-----3--------5-----3------|----3-----5-----3-----10---8-------
d----6--------8------5------|---6-----8-----5------10---8-------
a---------------------------|-----------------------------------
c--(5)------(7)------0------|--5-----7-----0-----10-----8-------
      "neon"        "neon"    "Who knows"...


Bridge
e------------------------------|--------------------------------
b----4----6----7-(x3)-------12-|----8-------8---------8---------
g----5----7----8------then--12-|----8-------8---------7----(x4)-
d----6----8----9------------12-|----8-------8--------10---------
a------------------------------|--------------------------------
c---(5)--(7)--(8)-----------11-|--0-----0h7-----0h10------------
                Solo (w. right rythmic thang)

Other versions of Neon

NeonChords
Neon (Ver. 2) - soloTabs
Neon - introTabs
Neon acousticTabs
Neon liveTabs

Almost there ...

Sign in to get your own page with links to favourite songs and more. You are just one click away...

Login with Facebook Login with Google