Log in

One click and you are in

Login with Facebook Login with Google

Why sign up and log in

Guitar Tabs Explorer
John Mayer bass tabs for Neon

Bass tabs

john mayer - neon
from room for squares

tabbed by kevin c. [(blindgorgon) http://blindgorgon.deviantart.com]

downtune low e to low c

no play intro


Verse 1 (4x)
-------------------
-------------------
3--5/6------------1
---------3/5--7/8--

She comes and goes...
-----------------------
-----------------------
-----------------------
8--7--6---3/6----6/15\6


Verse 1 part 2 (6x)
-------------------
-------------------
3--5/6------------1
---------3/5--7/8--

She comes and goes...
--------------------
--------------------
--------------------
8--7-2/7--6--2356626

---------------------
---------------------
---8-----------------
8----7--3--8--9--5/10


Chorus
...neon, neon
---------------
---------------
---------------
5--7-8-7--10-12

---------------
---------------
7-10-7-12--10-8
---------------
neon, neon
---------------
---------------
---------------
5--7-8-7--10-12

---------------
---------------
33----33---8h10
---77----7-----

who knows...
---------------
---------------
---------------
5--7-8-7--10-12

long...
------------------------------
------------------------------
3--1-----------5/11-11-11-11\5
------8--8-8------------------


Verse 2 (6x)
-------------------
-------------------
3--5/6------------1
---------3/5--7/8--

She comes and she goes...
---------------------
---------------------
--------------4---4-4
8--7--6--1/6----6----

-----------------------
-----------------------
---------------1-1/11\1
8--7--5--7--8----------


Chorus
...neon, neon
---------------
---------------
---------------
5--7-8-7--10-12

---------------
---------------
7-10-7-12--10-8
---------------
neon, neon
---------------
---------------
---------------
5--7-8-7--10-12

------------------
------------------
------------------
7-10-7-12-7-10-8-7

who knows...
---------------
---------------
---------------
5--7-8-7--10-12


long...
------------------------------
------------------------------
3--1-----------5/11-11-11-11\5
------8--8-8------------------


Bridge
----------------------
----------------------
----------------------
5--7--8--9--9h10------

----------
----------
----------
5--7--8--9


solo
-----------------
-----------------
-----------------
8h10--8h10--10/12

---------------
---------------
---------------
8-10-8-10/12-12

--------------------
--------------------
--------------------
10---8-10-8-10/12-12


she comes...
----------------
----------------
----------------
0-/10--0-/7--0/6

-----------------
-----------------
6---6-6-0-7-0-7\0
--6--------------

--------------------------
--------------------------
--------------------------
0-/10--0-/7--0-5--7--8--10

-------------------
-------------------
-------------------
10-10--10/15\10\8p7


Chorus
...neon, neon
---------------
---------------
---------------
5--7-8-7--10-12

---------------
---------------
---------------
7--10--7--12--7
neon, neon
---------------
---------------
---------------
5--7-8-7--10-12

---------------
---------------
10--10-10-12--7
---------------

who knows...
---------------
---------------
---------------
5--7-8-7--10-12

long...
------------------------------
------------------------------
3--1-----------5/11-11-11-11\5
------8--8-8------------------


outro (2x on album 1x live)
-------------------
-------------------
3--5/6------------1
---------3/5--7/8--

album fades out repeating this:
----------
----------
----------
3--1-1-1h3

live:
----------------------
----------------------
3--5/6------------1--3
---------3/5--7/8-----

Almost there ...

Sign in to get your own page with links to favourite songs and more. You are just one click away...

Login with Facebook Login with Google