Log in

One click and you are in

Login with Facebook Login with Google

Why sign up and log in

Guitar Tabs Explorer
John Mayer guitar tabs for Neon acoustic

Guitar tabs with lyrics

Ericolicious@aol.com          spyder_1810@yahoo.com
 this tab was originally by ericolicious@aol.com  modifications were made
by spyder_1810@yahoo.com
This tab already exists in the olga, but as a normal tab, not an acoustic
version, note that this tab does have some differences, both in lack of
thumb usage and chord formation.
*drop the low e to c, to do this, just put the capo on the first fret and
put the guitar in drop d, when you take off the capo you will be in drop
c.
*This is a much easier version of the neon tab posted on olga, try it out
and tell me if you like it.
Album:  Room for Squares

e--------------------------------------------------
b---9-7---------5------------7----------10-----12--
g-------------4------------6----------9------11----  repeats as verse
d--------------------------------------------------
a--------------------------------------------------
c-0-----0h3---------0h5----------0h8-----10--------
*You do not use your left hand thumb in this at all, just put your
pointer finger on the bass string, and ring and pinky finger on the
treble strings.
*For this next part you just have to feel it, listen to an acoustic
version of the song to understand it.  I am going to tab out the first
chord exactly as i play it,then just the other chrod formations.  Know
that the other chords are played as the first.
*Also note that the chord formation is just like the first chord held in
"why georgia"...kinda neat.
e---------------------------------------------------------------------------
b-+------7-----7--------+----7-----5----5---------------------------------------

g-+----6-----6----------+--6-----4----4-----------------------------------------
play x2
d-+---------------------+-------------------------------------------------------
--
a-+---------------------+-------------------------------------------------------
-
c-+-8------8-----8-8----+7-----5-----5------------------------------------------
-----
                      now just the chords, but play like the first chord
i tabbed.
"she comes"

second change
e---------------------------------------------------------------
b-------5-------7------7~~---------------------------------------
g-----4-------6---------8~~--------------------------------------
d------------------------------------------------------------
a---------------------------------------------------------------
c--5------0h7--------------------------------------------
 she's slipping... "haaands"

Chorus
e---------------------------   |-----------------------------------
b-------5---------7-----5---   |------5-----7-----5----------------
d-----4--------6------4-----   |----4-----6-----4--------11------9-
d---------------------------x2 |-----------------------11------9---
a---------------------------   |-----------------------------------
c---5--------7-------0------   |--5-----7-----0-----10-------8-----
      "neon"        "neon"        "Who knows"...
*You have to embelish the chorus, simliar to the "she comes and goes"
part.  Like i said earlier, listen to an acoustic versionof the song to
get a feel for the song.  This song goes by so fast that a few mistakes
or half muted notes arent heard if the the whole thing is done right.


Bridge
Im not to sure about the bridge yet, its a work in progress.  But make
something up based on the chords already given in the tab earlier.
Remember this is an acoustic version of the song.
And I already know it is not how John Mayer plays it, ive seen the video
of him on Last Call, he uses his thumbs for one thing.  This tab is
totally thunb free.  Anyway, comments, suggestions or gripes are
appreciated, you can reach me at spyder_1810@yahoo.com   or on aim at
spicythriller.

________________________________________________________________________________

Other versions of Neon Acoustic

NeonChords
NeonTabs
Neon (Ver. 2) - soloTabs
Neon - introTabs
Neon liveTabs

Almost there ...

Sign in to get your own page with links to favourite songs and more. You are just one click away...

Login with Facebook Login with Google