Log in

One click and you are in

Login with Facebook Login with Google

Why sign up and log in

Guitar Tabs Explorer
John Mayer chords for My stupid mouth

Guitar chords with lyrics

My stupid mouth (John Mayer)
transcribed by Billy Dethrow


Intro

e------------------------------
b---3---2---3---3---3---2---3--
g---2---2---2---2---2---2---2--
d---0---x---0---0---0---0---0--
a---x---4---x---x---2---x---x--
e-----------2---3-------2---3--

* (x4x22x) might be (x4022x), but you have to play energically.
Part 1


Verse

e------------------------------ ---------------------------
b---3---2---3---3---3---2---3-- ---3---2---3---3---2---3---
g---2---2---2---2---2---2---2-- ---2---2---2---2---2---2---
d---0---x---0---0---0---0---0-- ---0---0---0---0---0---0---
a---x---4---x---x---2---x---x-- ---2---x---x---2---x---x---
e-----------2---3-------2---3-- -------2---3-------2---3---


Part 2

"Oh.. just another social casualty.."

(live)

e---2------------------------------------------------3------
b---3---5---5--7---10--10------3---3---3-----3---3---1---8--
g---0---6---7--7---12--11------0---2---0-----0---2---0---7--
d---0---4---7--7---10--10------0---0---2-----0---0---3---9--
a---x---x---x--x----x---x------x---x---2-----x---x---x---x--
e---3---6---7--7---10--10------3---2---0-----3---2---1---7--
                   ***

*** Those chords ( (10x101210x) and (10x101110x) ) were taken from the
    Alan Myers and Michael Scott's tab. If you have small fingers, I
    recommend (xx0213), (xx0212) or (xx0585), (xx0575).

    You can also replace (1x3013) by (1x3213) for a fuller sound.

(album)

e---2----------------------------------------------------
b---3---5---5---------------3---3---3-----3---3---1---8--
g---0---6---7---12--11------0---2---0-----0---2---0---7--
d---0---4---7---12--12------0---0---2-----0---0---3---9--
a---x---x---x----x---x------x---x---2-----x---x---3---x--
e---3---6---7---10--10------3---2---0-(2)-3---2---1---7--

Part 3


Chorus

e---------------------------2-- -----------------------2---
b---3---2---3---3---3---2---3-- ---3---2---3---3---2---3---
g---2---2---2---2---2---2---0-- ---2---2---2---2---2---0---
d---0---x---0---0---0---0---0-- ---0---0---0---0---0---0---
a---x---4---x---x---2---x---x-- ---2---x---x---2---x---x---
e-----------2---3-------2---3-- -------2---3-------2---3---


Part 4

" Oh I'm never speaking up again... "

e---5---
b---3---
g---3---
d---3---
a---x---
e---3---


Part 5

Last chorus

e---------------------------2-- ---------------------------2---
b---3---2---3---3---3---2---3-- ---3---3---3--(3)--3---2---3---
g---2---2---2---2---2---2---0-- ---0---2---0---2---2---2---0---
d---0---x---0---0---0---0---0-- ---2---0---0---2---0---0---0---
a---x---4---x---x---2---x---x-- ---2---x---x---0---2---x---x---
e-----------2---3-------2---3-- ---0---2---3-----------2---3---

Almost there ...

Sign in to get your own page with links to favourite songs and more. You are just one click away...

Login with Facebook Login with Google