Log in

One click and you are in

Login with Facebook Login with Google

Why sign up and log in

Guitar Tabs Explorer
John Mayer chords for Love soon

Guitar chords with lyrics

Love Soon (Inside Wants Out)
By John Mayer
Re-tabbed by Dave Meslin (with help from Mark Schmitz' original tab
work--thanks)

I'm not promising this is any more accurate than the other
version--it's just an alternate.
Comments, improvements, and alterations are welcome.

Main hook & choruses
The rhythm is NOT implied by the structure of this tab in any way.
Listen to the music for that.

e-----------------3-\-----1--/-----8----8--------------|
B-----------------3-\-----1--/-----8----8--------------|
G------^----------4-\-----2--/-----9----11-------------|
D------^----------5-\-----3--/-----10---10-------------|
A-muted rake------5-\-----3--/-----10---10-------------|
E--(15\3)---------3-\-----1--/-----8----8--------------|

Bass A chord diagramE MajorE is all thumbs. That last 8.10.10.11.8.8 sounds really weird out
of context, but give a good listen to the IWO version
of Love Soon. I think it's right; that dissonance is pretty distinct.
Someone help me if I'm wrong. As far as fingering
for that chord, I use a thumb on the bass E, and then, working
downword, middle, ring, pinky, index, index. I have small
hands, so it hurts, but I'd imagine it's feasible for most.

"Did you expect to kiss me one time..."
e---5-5----s--3-3----s--2-2-------------------------------------|
B---5-5--m-t--3-3--m-t--3-3-------------------------------------|
G---6-6--u-r--4-4--u-r--2-2-------------------------------------|
D---7-7--t-u--5-5--t-u--4-4-------------------------------------|
A---7-7--e-m--5-5--e-m--5-5-------------------------------------|
E---5-5--d-s--3-3--d-s--2-2-------------------------------------|

"So come on and face it..."
e--2------------0--------|
B--3------------0--------|
G--2------------1--------|
D--4------------2--------|
A--2------------2--------|
E--2------------0--------|

"It's time that we say it..."
e--0-----------------------0------0-2------|
B--1-----------------------1------1-3------|
G--0-----------------------0------0-2------|
D--2-----------------------2------2-0------|
A--0-----------------------3------3--------|
E--------------------------0------0--------|

**OR***

"It's time that we say it..."
e--5-----------------------3------3-5------|
B--5-----------------------5------5-7------|
G--5-----------------------5------5-7------|
D--5-----------------------5------5-7------|
A--7-----------------------3------3-5------|
E------------------------------------------|


"You can cross the line whenever you want to..."
e----3-3--------------------------5-5------|
B----3-3--------------------------7-7------|
G----4-4--------------------------7-7------|
D----5-5--------------------------7-7------|
A----5-5--------------------------5-5------|
E----3-3-----------------------------------|


"I'm callin' it love soon"
e----8---8-----------10-----10---------|
B----8---8-----------10-----10---------|
G----9---9-----------11-----11---------|
D----10--10----------12-----12---------|
A----10--10----------12-----12---------|
E----8---8-----------10-----10---------|

"It's not about you now" is the same as above (not really, but I can't
figure it out  )


"It's what we are"
e----5---------5---------Back to hook----|
B----5---------7-------------------------|
G----5---------7-------------------------|
D----5---------7-------------------------|
A----7---------5-------------------------|
E----------------------------------------|


Then it's all repeated, until...

"Let's bypass the bullshit..."

e----10-10-10-10-------3---------------------------3----|
B----8--8--8--8--------3---------------------------4----|
G----8--8--8--8--------4---------------------------x----|
D----8--8--8--8--------5---------------------------5----|
A----10-10-10-10 ------5---------------------------5----|
E----------------------3---------------------------3----|


"The minute hand moves faster than you think it does"

e----10-------------------------------------0-----5------|
B----8--------------------------------------4-----5------|
G----8--------------------------------------6-----5------|
D----8--------------------------------------5-----5------|
A----10-------------------------------------0-----0------|
E-------------------------------------------5-----5------|


"And by no fault of yours..."
e---0----------------------2------|
B---1----------------------3------|
G---0----------------------2------|
D---2----------------------4------|
A---0----------------------2------|
E---------------------------------|

"The bottom line is layin'..."
e-------------------------------|
B---8---10--------------8---10--|
G---8---10--------------8---10--|
D---8---10--------------8---10--|
A---6---8---------------6---8---|
E-------------------------------|

and everything else is just variations on the hook from here on out.

Almost there ...

Sign in to get your own page with links to favourite songs and more. You are just one click away...

Login with Facebook Login with Google