Log in

One click and you are in

Login with Facebook Login with Google

Why sign up and log in

Guitar Tabs Explorer
John Mayer bass tabs for In the blood

Bass tabs with lyrics

Intro:

G|---------------------------------------------------------------------------|
D|---------------------------------------------------------------------------|
A|------------------3--3-2------------------------3---3-2--------------------|
E|--3---3-2-0---0----------3------3---3-2-0---0-----------0------------------|
Verse 1:

G|---------------------------------------------------------------------------|
D|---------------------------------------------------------------------------|
A|--------------------------------3------3---2-------------------------------|
E|--3-------3---2---0------0---------------------3----3----------------------|

How much of my mother has my mother left in me.

G|---------------------------------------------------------------------------|
D|----------------------------------0-------0-------0------------------------|
A|---------------------------------------------------------------------------|
E|--3-------3-------3--------3-----------------------------------------------|

  How much of my love would be insane to some degree.

G|---------------------------------------------------------------------------|
D|---------------------------------------------------------------------------|
A|---------------------------------3------3---2------------------------------|
E|--3-------3---2---0-------0----------------------3----3--------------------|

And what about this feeling that I'm never good enough.

G|---------------------------------------------------------------------------|
D|-------------------------------------0-------0-----------------------------|
A|---------------------------------------------------------------------------|
E|--------0------0---2---3-------3----------------2--3-----------------------|

Will it wash out in the water or is it always in the blood.

G|---------------------------------------------------------------------------|
D|---------------------------------------------------------------------------|
A|---------------------------------------------------------------------------|
E|---3--3--3--3--3-2-3---3--3--3--3--3-2-3-----------------------------------|

Verse 2:

G|---------------------------------------------------------------------------|
D|---------------------------------------------------------------------------|
A|--------------------------------3------3---2-------------------------------|
E|--3-------3---2---0------0---------------------3----3----------------------|

  How much of my father am I destined to become

G|---------------------------------------------------------------------------|
D|---------------------------------------------------------------------------|
A|---------------------------------------------------------------------------|
E|--3-------3-------3--------3------0-------0-------0------------------------|

  Will I dim the light inside me just to satisfy someone

G|---------------------------------------------------------------------------|
D|---------------------------------------------------------------------------|
A|---------------------------------3------3---2------------------------------|
E|--3-------3---2---0-------0----------------------3----3--------------------|

  Will I let this woman kill me or do away with selfish love

G|---------------------------------------------------------------------------|
D|-------------------------------------0-------0-----------------------------|
A|---------------------------------------------------------------------------|
E|--------0------0---2---3-------3----------------2--3-----------------------|

  Will it wash out in the water or is it always in the blood.


Chorus:

G|---------------------------------------------------------------------------|
D|---------------------------------------------------------------------------|
A|-----------------------------------3---------3---2-------------------------|
E|-------0---------0---2---3---3-----------------------3---------------------|

  I can feel the love I want, I can feel the love I need

G|---------------------------------------------------------------------------|
D|--------------------------------------0---0---0---0------------------------|
A|---------------------------------------------------------------------------|
E|--3------0----0-----2---3---3---3------------------------------------------|

  But it never seems to come the way I am

G|---------------------------------------------------------------------------|
D|---------------------------------------------------------------------------|
A|-----------------------------------3---------3---2-------------------------|
E|-------0---------0---2---3---3-----------------------3---------------------|

  I could change it if I want I can rise above the flood

G|---------------------------------------------------------------------------|
D|----------------------------------------0------0---------------------------|
A|---------------------------------------------------------------------------|
E|-------0---------0---2---3------3-----------------2---3--------------------|

  Will it wash out in the water or is it always in the blood.


Verse 3:

G|---------------------------------------------------------------------------|
D|---------------------------------------------------------------------------|
A|--------------------------------3------3---2-------------------------------|
E|--3-------3---2---0------0---------------------3----3----------------------|

  How much of my brothers do my brothers want to be

G|---------------------------------------------------------------------------|
D|---------------------------------------------------------------------------|
A|---------------------------------------------------------------------------|
E|--3-------3-------3--------3------0-------0-------0------------------------|

  Will a broken home become another broken family

G|---------------------------------------------------------------------------|
D|---------------------------------------------------------------------------|
A|---------------------------------3------3---2------------------------------|
E|--3-------3---2---0-------0----------------------3----3--------------------|

  Will we there for each other like nobody ever could

G|---------------------------------------------------------------------------|
D|-------------------------------------0-------0-----------------------------|
A|---------------------------------------------------------------------------|
E|--------0------0---2---3-------3----------------2--3-----------------------|

  Will it wash out in the water or is it always in the blood.


Chorus:

G|---------------------------------------------------------------------------|
D|---------------------------------------------------------------------------|
A|-----------------------------------3---------3---2-------------------------|
E|-------0---------0---2---3---3-----------------------3---------------------|

  I can feel the love I want, I can feel the love I need

G|---------------------------------------------------------------------------|
D|--------------------------------------0---0---0---0------------------------|
A|---------------------------------------------------------------------------|
E|--3------0----0-----2---3---3---3------------------------------------------|

  But it never seems to come the way I am

G|---------------------------------------------------------------------------|
D|---------------------------------------------------------------------------|
A|-----------------------------------3---------3---2-------------------------|
E|-------0---------0---2---3---3-----------------------3---------------------|

  I could change it if I want I can rise above the flood

G|---------------------------------------------------------------------------|
D|----------------------------------------0------0---------------------------|
A|---------------------------------------------------------------------------|
E|-------0---------0---2---3------3-----------------2---3--------------------|

  Will it wash out in the water or is it always in the blood.

G|---------------------------------------------------------------------------|
D|----------------------------------------0------0---------------------------|
A|---------------------------------------------------------------------------|
E|-------0---------0---2---3------3-----------------2---3--------------------|

  Will it wash out in the water or is it always in the blood.

Almost there ...

Sign in to get your own page with links to favourite songs and more. You are just one click away...

Login with Facebook Login with Google