Log in

One click and you are in

Login with Facebook Login with Google

Why sign up and log in

Guitar Tabs Explorer
John Mayer bass tabs for I will be found lost at sea

I Will Be Found Lost At Sea bass tab by John Mayer

John Mayer bass tabs for I will be found lost at sea

Bass tabs

(Intro) Piano-
G|-------|--------|--------|--------|
D|-------|--------|--------|--------|
A|-------|--------|--------|--------|
E|-------|--------|--------|--------|

  It doesnt matter where

G|-------|--------|--------|--------|--------|--------|--------|--------|--------|
D|-------|--------|--------|--------|--------|--------|--------|--------|--------|
A|-------|--------|---8----|--------|--------|--------|---8----|8-------|15-13-12|
E|8------|10------|10------|10------|10-8----|8-10----|10------|--10----|--------|


 I'm a little lost at            I will be found

G|-------|--------|--------|--------|--------|--------|--------|--------|--------|
D|-------|--------|--------|--------|--------|--------|--------|--------|--------|
A|----5-5|-----8-8|-----5-5|--------|-8-8-8-8|--------|--------|-8-8-8-8|--------|
E|5-5----|-6-6----|-5-5----|-6-6-6-6|--------|-8-8-8-8|-6-6-6-6|--------|-8------|


 (interlude)

G|-------|--------|--------|---------|--------|--------|--------|--------|--------|
D|-------|--------|--------|---------|--------|--------|--------|--------|--------|
A|-------|------8-|8-8-8---|---------|--------|--------|--------|--------|--------|
E|-10-10-|10-10---|------10|-10-10-10|--------|--------|--------|--------|--------|


 Somedays I think

G|-------|---------|--------|---------|--------|---------|---------|---------|--------------|
D|-------|---------|--------|---------|--------|---------|---------|---------|--------------|
A|-------|---------|----8-8-|8-8------|--------|---------|---------|----8-8-8|-8------------|
E|8-8-8-8|-10-10-10|-10-----|----10-10|-10-10-8|-8-8-8-10|-10-10-10|-10------|---10-10-10-10|


 I'm a little lost at            I will be found

G|-------|--------|--------|--------|--------|--------|--------|--------|--------|
D|-------|--------|--------|--------|--------|--------|--------|--------|--------|
A|----5-5|-----8-8|-----5-5|--------|-8-8-8-8|--------|--------|-8-8-8-8|--------|
E|5-5----|-6-6----|-5-5----|-6-6-6-6|--------|-8-8-8-8|-6-6-6-6|--------|-8------|


 (interlude 2)

G|-------|--------|--------|---------|--------|--------|
D|-------|--------|--------|---------|--------|--------|
A|-13-12-|12---13-|12-12---|13-12-12-|--13-12-|12------|
E|-------|---8----|------8-|---------|8-------|---8----|


 (piano)             Maybe I'm a runaway train

G|-------|--------|--------|--------|--------|--------|--------|--------|
D|-------|--------|--------|--------|--------|--------|--------|--------|
A|-------|--------|--------|--------|-----5-5|-----8-8|-----5-5|--------|
E|-------|--------|--------|--------|-5-5----|-6-6----|-5-5----|-6-6-6-6|


 I will be found

G|--------|--------|--------|--------|--------|---------|--------|--------|
D|--------|--------|--------|--------|--------|---------|--------|--------|
A|--------|--------|-8-8-8-8|--------|--------|---------|-8-8-8-8|--------|
E|-8-8-8-8|-6-6-6-6|--------|-8-8-8-8|-8-8-8-8|-6-6-6-6-|--------|-8------|


 (Outro) Piano

G|-------|--------|--------|--------|
D|-------|--------|--------|--------|
A|-------|--------|--------|--------|
E|-------|--------|--------|--------|

Almost there ...

Sign in to get your own page with links to favourite songs and more. You are just one click away...

Login with Facebook Login with Google