Log in

One click and you are in

Login with Facebook Login with Google

Why sign up and log in

Guitar Tabs Explorer
John Mayer bass tabs for I still feel like your man

I Still Feel Like Your Man bass tab by John Mayer

John Mayer bass tabs for I still feel like your man

Bass tabs

Verse:
  A
G|----------------------------------|-----------------------------------------|
D|----------------------------------|-----------------------------------------|
A|-----------------------5---7-5----|-----------------------5---7-5-----------|
E|5-----x5-5---5---x-5-7---7-----7--|---5---x5-5--5---x-5-7---7-----7-5-------|

"The prettiest girl in the room, she wants me..."
G|----------------------------------|-----------------------------------------|
D|----------------------------------|-----------------------------------------|
A|-----------------------5---7-5----|-----------------------5---7-5-----------|
E|5-----x5-5---5---x-5-7---7-----7--|---5---x5-5--5---x-5-7---7-----7-5-------|

G|----------------------------------|-----------------------------------------|
D|----------------------------------|-----------------------------------------|
A|-----------------------5---7-5----|-----------------------5---7-5-----------|
E|5-----x5-5---5---x-5-7---7-----7--|---5---x5-5--5---x-5-7---7-----7-5-------|
Chorus:
"Still feel like your man..."
  Emin          A
G|-----------------------------|----------------------------------------------|
D|-----------------------------|----------------------------------------------|
A|-7-7----7---5-7----7-5-------|--------4------4------------------------------|
E|----------7------7-------5-5-|--x-5-7----5-7--------------------------------|

  D               F#
G|----------------------------|-----------------------------------------------|
D|------------4------4--------|-----------8-8---------------------------------|
A|5-5---x-5-7----5-7----------|--------------/-9-9-----9-9--------------------|
E|----------------------------|----2-2----------------------------------------|

  Emin          A            F#
G|-----------------------------|----------------------------------------------|
D|-----------------------------|-------------------------------8-8------------|
A|-7-7----7---5-7----7-5-------|--------4------4---------/-9-9-----9-9--------|
E|----------7------7-------5-5-|--x-5-7----5-7------2-2-----------------------|


Outro:
G|----------------------------------|-----------------------------------------|
D|----------------------------------|-----------------------------------------|
A|-----------------------5---7-5----|-----------------------5---7-5-----------|
E|5-----x5-5---5---x-5-7---7-----7--|---5---x5-5--5---x-5-7---7-----7-5-------|

G|----------------------------------|-----------------------------------------|
D|----------------------------------|-----------------------------------------|
A|-----------------------5---7-5----|-----------------------5---7-5-----------|
E|5-----x5-5---5---x-5-7---7-----7--|---5---x5-5--5---x-5-7---7-----7-5-------|

Almost there ...

Sign in to get your own page with links to favourite songs and more. You are just one click away...

Login with Facebook Login with Google