Log in

One click and you are in

Login with Facebook Login with Google

Why sign up and log in

Guitar Tabs Explorer
John Mayer guitar tabs for Human nature

Intro

First tab. First Michael Jackson tribute. My way of giving back. The tab is composed
try adding slaps to it, for a more rhythmic independent guitar play. This one's for you, Michael!
(Tabs by JS Chai)
---------------------------------------------------------------------|
----3----------------------------------3---2~------------------------|
/4-----6~--2h4p2-------------------------4-----4p2--4~-2~------------|
-------------------/4-2~---------------------------------------------|
-------------------------5--2p0--------------------------------------|
---------------------------------3---3-------------------------------|


---------------------------------------------------------------------|
---3-------------------------------3-3-5----5-3----------------------|
/4-----6~--2h4p2-------------------4-4-6----6-4----------------------|
-------------------/4-2----------------------------------------------|
------------------------2--------------------------------------------|
--------------------------0h2---3------6----5-3----------------------|


------------------5------------------------------------------------------|
-----------3-5----7p5---------------3-5-------------------3-5------------|
-4-6/4-2~--4-6--------7-6-7p6-4-2---4-6---7-7h9p7-7---4~--4-6------------|
-------------------------------------------------------------------------|
-------------------------------------------------------------------------|
-----------3-5----------------------3-5-------------------3-5------------|

Almost there ...

Sign in to get your own page with links to favourite songs and more. You are just one click away...

Login with Facebook Login with Google