Log in

One click and you are in

Login with Facebook Login with Google

Why sign up and log in

Guitar Tabs Explorer
John Mayer guitar tabs for Gravity

Guitar tabs

Tunning: Standard


Intro:
e------------------------------------------|
b----8-8-10b-10b~-----8--------8-----------|
g-/9--------------------7h9p7---9----------|
d-----------------------7--------7---7s9---|
a------------------------------------------|
e---------------------------------------------|
b----8-8-10b-10b-10~--------------------------|
g-/9------------------------------------------|
d-----------------------------5-5-7-7s9-9-7~--|
a------------------------5s7------------------|
E---------------------------------------------|

e-----------------------------------------
b----8-8-10b-10b~-----8--------8----------
g-/9--------------------7h9p7---9---------
d-----------------------7--------7---7s9--
a-----------------------------------------

e---------10------------------------------
b----8-8----10bd-8-8~------10-------------
g-/9----------------------9------9~-------
d-----------------------------------------
a-----------------------------------------

I have two ways of doing the chords, you pick these aswell

e----------------------|----------------------------|
b---3---5------3---7---|--8(10)---7---8--------7----|
g---4---5------4---5---|--7-------5---7---7----5----|
d---5---5------5---5---|--10------4---8---5----4----|
a-------7----------7---|-----------5-----------5----|
e---3----------3-------|-------------------6--------|

e-----------------------------------------------|
b-----------8-----------6--------------12-------|
g--7---------7------7------7----------11---11---|
d--5-----------5----5---------10---10-----------|
a--------------------6--------------------------|
e--6-----6-------------------10---10------------|


Solo

E||--------------------------------|------------------|
B||----------13/15-----------------|------------------|
G||--14--16-------------16--14--16-|------------------|
D||--------------------------------|------------------|
A||--------------------------------|------------------|
E||--------------------------------|------------------|

---------------------------|---------------------------|
---------15/17----15-------|----13---------------------|
--14-16--------------16-14-|-------16-14--12h14p12-----|
---------------------------|-----------------------14--|
---------------------------|---------------------------|
---------------------------|---------------------------|

----------19----|-----------17-(19)-----------19-------|
---15-17--------|----15-17--------------15-17----15-17-|
----------------|--------------------------------------|
----------------|--------------------------------------|
----------------|--------------------------------------|
----------------|--------------------------------------|

--17-----17--17b----15---|--15-15--15------------------------------|
------15-----------------|--15h17--15--15-15-15-15-15--------------|
-------------------------|-------------14h16p14h16-14--------------|
-------------------------|-----------------------------17-14----14-|
-------------------------|-----------------------------------------|
-------------------------|-----------------------------------------|

---------------------------------||
---------------------------------||
---17--16--14------17--16--14----||
---14--14--14--14--14--14--14----||
---------------------------------||
---------------------------------||

Other versions of Gravity

GravityChords
Gravity - introTabs
Gravity acousticTabs
Gravity liveTabs

↓ Add and view comments below ↓

What do you think about this song and these tabs?

Add your comments, questions, rant or a thumbs up below.

Almost there ...

Sign in to get your own page with links to favourite songs and more. You are just one click away...

Login with Facebook Login with Google