Log in

One click and you are in

Login with Facebook Login with Google

Why sign up and log in

Guitar Tabs Explorer
John Mayer chords for Daughters

Guitar chords

DAUGHTERS

this is merely a stencil

"i know a girl........   (some fill between
                          phrases)   or
E-0----0----0----x       (A chord diagramE MajorE)--x--x--x  x--x--x
B-0----0----0----x       (A chord diagramBB)--x--x--x  x--x--x
G-7----7----7----7       (A chord diagramG+G)--7--9--7  7--9--11
D-7----5----5----4       (A chord diagramD MajorD)--4--5--4  4--5--7
A-x----7----0----5       (A chord diagramA augmentedA)--5--7--5  5--7--9
E-7----0----x----x       (A chord diagramE MajorE)--x--x--x  x--x--x

"so mothers be good...

E-x--x--x--x
B-x--x--x--x
G-7--7--7--7
D-7--6--5--4
A-x--x--0--5
E-7--0--x--x

(change on the word)
"oh...boy...break...
E-x---x-----0
B-10--8-----7
G-10--8-----7
D-0---0-----0
A-x---x-----x
E-10--6-----5

(change on the word)
"you find...much...take
E-0---------x------2
B-7---------5------3
G-6---------6------2
D-0---------7------x
A-x---------x------2
E-5---------x------x

(change on the word)
"boys...on...gone...woman's good, good,
E-2-----2----x------x
B-3-----3----x------x
G-2-----2----3------6
D-x-----0----3------5
A-2-----x----x------x
E-x-----2----3------5

"heart...
E-x--x--x--x
B-x--x--x--x
G-7--7--7--7
D-7--6--5--4
A-x--x--0--5
E-7--0--x--x

submitted by SLawrence980@aol.com
let me know what you think

Other versions of Daughters

Daughters (Ver. 2)Chords
Daughters ukuleleChords
DaughtersTabs

Almost there ...

Sign in to get your own page with links to favourite songs and more. You are just one click away...

Login with Facebook Login with Google