Log in

One click and you are in

Login with Facebook Login with Google

Why sign up and log in

Guitar Tabs Explorer
John Mayer guitar tabs for Comfortable

Guitar tabs

Comfortable
by John Mayer
Trans. by Mark Schmitz
Stardard Tuning
Capo on 3rd fret
(March 2000 Webcast)

Intro/Verse:
e--------0h2-2-0------0-2-3-3---2-----2------0-----3-0--------0----
-------3---------3----3-3-3-2---3---3---3----1-----1-1------1---1--
-----2----------------------------4-------4------0--------0--------
---0-------------------------------------------2--------2----------
--------------------------------2------------0---------------------
E---------------------3---3----------------------------------------

e-----------------------
----0--2--3---0--2--3---
----0--2--2---0--2--4---
------------------------
-------0--2------0--2---
E--3--------0-----------



Chorus(very similar to Verse):(SUGGESTIONS ARE LOVED!!! HELP)
e--2---3---3----0--3---2--3---------3-----3--------
---3---3---0----3--3---3--3---1--1--3-----3--2-----
---2---2---0----2--2---2--2---0--0--2--1--0--2-----
---0-------0----0--2---0------2--2-----0--0--2-----
------------------------------3--------2-----------
E------2---3-------3------2---------2-----3--------


end part thingy
e-2--3-2-0---------3-2-0--
--3-----------------------
--2-----------------------
--0-----------------------
--------------------------
E----------0-2-3-5--------


life of the party
e--3--------
---3---2----
---0---2----
---0---2----
------------
E--3--------

Other versions of Comfortable

ComfortableChords
Comfortable any given thursdayTabs

Almost there ...

Sign in to get your own page with links to favourite songs and more. You are just one click away...

Login with Facebook Login with Google