Log in

One click and you are in

Login with Facebook Login with Google

Why sign up and log in

Guitar Tabs Explorer
John Mayer tabs for Clarity

Guitar tabs

Intro/Verse
(Continue until Chorus)

e-----------------------------------------------
b-----------------------------------------------
g--------------6--------------------------------
d----4---------4--------------------------------
a----2---------5--------------------------------
e----3------------------------------------------


Chorus
"And I will wait to find"
e-------------------------------------
b---2h3-------------------------------
g---2---------x5----------------------
d---2h4-------------------------------
a-------------------------------------
e-------------------------------------

Back To Intro/verse


JUst Mess with this for w ahile tell u get it:)

Other versions of Clarity

ClarityChords
Clarity acousticTabs

Almost there ...

Sign in to get your own page with links to favourite songs and more. You are just one click away...

Login with Facebook Login with Google