Log in

One click and you are in

Login with Facebook Login with Google

Why sign up and log in

Guitar Tabs Explorer
John Mayer guitar tabs for City love

Guitar tabs

Verse/Main Riff

e---------------------------------------
b---------------------------------------
g-------4---7---4-----------------------
d---7---5---7---5---7---4--------4------   x4
a---7---------------7---5--------5------
e---------------------------7-----------
Chorus

e---0----------x-------------------------------
b---0----------9------------------------------
g---0----------9------------------------------
d---2----------7----x3--------9---4---/9--4---
a---3----------x-------------10---5--/10--5---
e---3----------8-------------10---5--/10--5----

Back to Main Riff

Back To Chorus


Bridge:
(Covered In Rain Riff)
e---x------x---x--------x---x---x---x------------
b---3-----10--11--------3---5---8---7------------
g---x------x---x--------x---x---x---x-----------
d---3-----10--10---x2---3---5---8---7------------
a---1------8---8--------1---3---6---5------------
e---x------x---x--------x---x---x---x------------


Solo

Part 6
"Friday evening we been drinking..."
e------------------------------------------------
b------------------------------------------------
g------------------------------------------------
d----4---4------4--4-----------------------------
a----5---5-x5---5--5-x5--------------------------
e----x---x------x--x-----------------------------

Back To chorus


Ending

e----------------------5---------------0-------
b------------------5---5----7----5-----3--------
g---------4---7----6--------7----6-----2--------
d-----7---5---7------------------------0--------
a-----7-----------------------------------------
e-----------------------------------------------

Other versions of City Love

City love liveTabs

Almost there ...

Sign in to get your own page with links to favourite songs and more. You are just one click away...

Login with Facebook Login with Google