Guitar Tabs Explorer
John Mayer tabs for City love live

City Love Live tab by John Mayer

John Mayer tabs for City love live

Tabs with lyrics

performed at the crossroads festival.
There is a great turtorial video on youtube,
http://www.youtube.com/watch v=U4LICAVfIkA
I learn this off that and saw that some were still
finding it difficult so i tabbed it how i play it.
Not 100% accuracy but pretty close i would say.
I'm no John Mayer so this is the best i could do.

It's in drop A chord diagramD MajorD and leads straight onto City Love
from Room for Squares

Email me at [email protected]
for changes or praise :)
I would aslo like to note this is my first
tab so apologies if it's not perfect.
I put alot of x's to show how much Mayer hits the strings,
you just got to figure out your own rhythm

|--------------------------------------------------------------------------|
|----x-10h12-10v------------------x---x-10h12----13------------------------|
|----x-10h12-10v------------------x---x-10h12------12-10v-12--10v----------|
|----------------10-12p10---------x-----------12------------9-----10-12p10-|
|------------------------12p10-8v-x----------------------------------------|
|--0------------------------------x-0--------------------------------------|

 --------------------------------------------------------------|
 ---------------------------------------13---------------------|
 -------------12br12-10h12p10-12b-10-------12p10---------------|
 ------------------------------------12----------12p10------10v|
 -12p10-8v---------------------------------------------12-8----|
 ----------0---------------------------------------------------|

|-x--------------------------------------------------------------------10-----|
|-x--------------------10h12p10v-x-------------------------12------12b---10---|
|-x--------------------10h12p10v-x---------------------------12-10---------12-|
|-x---x-10h12p10-x---x-----------10-12p10-----x---10h12p10--------------------|
|-x---x----------x---x--------------------12v-x-------------------------------|
|-x-0-x----------x-0-x------------------------x-0-----------------------------|

 -------------|-------------------------------------------|----------------|
 -10----------|-------------------------------------------|----------------|
 -------------|--10/11-10/11-11-11---12-12-----------(x2)-|--10/11-10/11---|
 ---12p10--10-|--9 /10-9 /10-10-10---10-10-10-12p10-------|--9 /10-9 /10---|
 --------12---|------------------------------------12-----|----------------|
 -------------|-0------------------0----------------------|-0--------------|

 ---------------------------------|------------------------------------------|
 ---------------------------8-8-6-|------------------------------------------|
 ---12---10---9--7--5-5v-7--------|-12br-10-------------12br-12-12-10--10h12-|
 --------------------------9-9----|---------10-10h12v10--------------12------|
 -14---12---10--8-----------------|------------------------------------------|
 ---------------------------------|------------------------------------------|

 --------------------------------|-12----10-------10--12--10-------10--12---|
 --------------------------------|---10----10-13b---10--10--10-13b---10--10-|
 -12b-10-12p10-------------------|-----10-----------------------------------|
 -------------12--10-12p10-------|------------------------------------------|
 -----------------------12p10\9v-|------------------------------------------|
 --------------------------------|------------------------------------------|
                         upward sweeping motion on the the bit below
 -10-------------------------------|
 ---10-13b---------------12-10-----|
 ----------12-12-99-----------10---|
 ------------------12v----------12-|
 ----------------------------------|
 ----------------------0-----------|

|--------------------------------------------------------|
|--------------------------------------------------------|
|----10/11-xx-10/11-xx----xx-------xx-------xx--10/11-xx-|
|-x--9 /10-xx-9 /10-xx-10-xx-10-10-xx-10h12-xx--9 /10-xx-|
|-x------------------------------------------------------|
|-x-0------------------------------------------0---------|
              upward sweeping motion on the the bit below
 ----------------|---------------------------------|
 ----------------|-12-10---------------------------|
 -10/11-11-11-11-|------10-----10/11-xx-------(x4)-|
 -9 /10-10-10-10-|--------12---9 /10-xx-10h12------|
 ----------------|---------------------------------|
 ----------------|-----------0---------------------|

|-------------------------------------------|-------------------------------|
|-----------------12-10-----10--------------|-------------------------------|
|----10v---------------10---10-x----x-------|--10/11-10/11-11-11---12-12----|
|--12---12p10------------12----x-10-x-10h12-|--9 /10-9 /10-10-10---10-10-10-|
|-------------12----------------------------|-------------------------------|
|-------------------------------------------|-0-------------------0---------|

 ----------------|---------------------------------------------|
 ----------------|---------------------------------------------|
 -----------(x2)-|--10/11-10/11-10v-----------------10---------|
 -12p10----------|--9 /10-9 /10----12p10--9v----------10-10h12-|
 ------12v-------|----------------------12--12p10h12-----------|
 ----------------|-0-------------------------------------------|
                             This part may be wrong, suggestions are welcome
|----------------------------------------|------8--------------------------|
|-------------------8br8-6-6h8-8b-6--6v--|----6---65-----------------------|
|-10101010-10-------------7--------7---7-|---5-----------------------------|
|------------12v-10-----------------7----|--5--------55-3v----------3h5p3v-|
|----------------------------------------|-5---5-5---------3535-3535-------|
|----------------------------------------|---------------------------------|

 --------|-----------------------------------|-------------------------------|
 --------|----------10-10--10----------------|-------------------------------|
 --------|-9--9--10-10-10--10---9--9--9--(x3)|-13\12-9-9--9-12br12-10--------|
 --------|-10-10-12------12--12-10-10-10-----|----------12-----------12p10---|
 -5p3h5v-|-----------------------------------|----------------------------12-|
 --------|-----------------------------------|-------------------------------|

 -----------------------------------|-------------15b-15-13-------13-13-13--|
 -13brb-10--------------------------|-15v-15-13v-----------13h15v-----------|
 ---------12p10--10v 10-------------|-----------14--------------------------|
 --------------12------12p10--10h12-|---------------------------------------|
 ---------------------------12------|---------------------------------------|
 -----------------------------------|---------------------------------------|

 -13--15b-15------20\-|
 ---15------13h15-----|
 ---------------------|
 ---------------------|
 ---------------------|
 ---------------------|

Next bit is pretty much same as bits tabbed above.
To end it pretty much these

|--------------------------------------|
|--10h12-10v--------------10h12-10-----|
|--10h12-10v-x------------10h12-10-----|
|------------x-12-10-12-10-------------|
|--------------------------------------|
|-0--------------------------------0---|

         and

|------------------------------------------|
|--10-12p10-------------------10-12p10-----|
|--10-12p10-------------------10-12p10-----|
|----------12--10-12-10-12-10---------12---|
|------------------------------------------|
|-0--------------------------------------0-|

Then the final bit is this bit again

|----------------------|
|----------------------|
|----------------------|
|---12---10---9--7-----|
|----------------------|
ⓘ Guitar tab for 'City Love Live' by John Mayer, a male indie artist from Bridgeport, Connecticut, USA. John Mayer was born in 1977. John Mayer is known for his happy rock/pop music.