Log in

One click and you are in

Login with Facebook Login with Google

Why sign up and log in

Guitar Tabs Explorer
John Mayer guitar tabs for Break in the clouds

Guitar tabs with lyrics

Listen to the song to get the rhythm http://www.youtube.com/watch v=b88VSVuVbIw&feature=related

This are the chords for the whole song.
e-------------------------------------------------|
b-------------------------------------------------|
g-----------------------10------------------------|
d------8-------10--------8------------------------|
a------6--------8--------6------------------------|
e------4--------6---------------------------------|

If you can't play it that way, try this one:

      A chord diagramG# minorG#m       A chord diagramA#mA#m     A chord diagramD#mD#m
e-------------------------------------------------|
b-------------------------------------------------|
g------4--------6--------8------------------------|
d------6--------8--------8------------------------|
a------6--------8--------6------------------------|
e------4--------6---------------------------------|


Verse:
I met a man I didn't know that asked me how are you doing
Shoulda just said fine cause it's all he wanted to hear
But for reasons unknown in a sorrowful tone I said
Man it's been a hell of a year


Chorus:
And I don't really know where I'm going
And I might just be hangin around
If life shades of gray then I guess you could say
That I've been waiting for a break in the clouds


Verse:
I went to go see some gypsy to tell me my future
But she asked for my photograph instead
As I walked through the cold with my fortune untold I said
Good luck trying to reach me when I'm dead

Chorus:
Cause I don't really know where I'm going
And I might just be hangin around
If life shades of gray then I guess you could say
That I've been waiting on a break in the clouds
That I've been waiting for a break in the clouds


Verse:
I saw the love I used to know swallow me whole
On a day I was out of clean clothes
She sized me up and she said honey how is your head
I said you cant call me honey but honey heaven only knows


Chorus:
And I don't really know where I'm going
And I might just be hangin around
If life shades of gray then I guess you could say
That I've been waiting for a break in the clouds


Outro
Bet your gonna be findin a break in the clouds
No no I don't no I don't know where I'm going
And I might might might might just be hangin around
And if life shades of gray then I guess you could say

Other versions of Break In The Clouds

Break in The CloudsChords

Almost there ...

Sign in to get your own page with links to favourite songs and more. You are just one click away...

Login with Facebook Login with Google