Log in

One click and you are in

Login with Facebook Login with Google

Why sign up and log in

Guitar Tabs Explorer
Mayday Parade bass tabs for Girls

Bass tabs

Intro:
G|---------------------------------------------------------------------------------|
D|2-2-2-2-2-2-2-2-2-2-2-2-2-2-2----------------------------------------------------|
A|------------------------------2-2-2-2-2-2-2-2-2-2-2-2-2-2-2----------------------|
E|---------------------------------------------------------------------------------|

G|----------------------------------------------------------------|
D|----------------------------------------------------------------|
A|4-4-4-4-4-4-4-4-4-4-4-4-4-4-4-----------------------------------|
E|-------------------------------5-5-5-5-5-5-5-5-7-7-7-7-7-7-7-7--|
Verse 2x: repeat for both verses
G|--------------------------------------|
D|-----2-22-2~-2-22-2~------------------|
A|---------------------0-00-0~-2-22-2~--|
E|--------------------------------------|


Pre-Chorus: for both pre-choruses
G|--------------------------------------------------------------------------------|
D|-2----2-------------------------------------------------------------------------|
A|4--40---------------------------------------------------------------------------|
E|--------------------------------------------------------------------------------|


Chorus 2x:
G|-------------------------------------------------------------------------------------------|
D||2-2-2-2-2-2-2-2-2-2-2-2-2-2-2-------------------------------------------------------------|
A|------------------------------2-2-2-2-2-2-2-2-2-2-2-2-2-2-2-4-4-4-4-4-4-4-4-4-4-4-4-4-4-4--|
E|-------------------------------------------------------------------------------------------|

G|---------------------------------|
D|---------------------------------|
A|---------------------------------|
E|5-5-5-5-5-5-5-5-7-7-7-7-7-7-7-7--|


Outro 3x:
G|-------------------------------------------------------------------------------------------------|
D|-------------------------------------------------------------------------------------------------|
A|7-7-7-7-7-7-7-7-----------------7-7-7-7-7-7-7-7--------------------------------------------------|
E|----------------5-5-5-5-5-5-5-5-----------------7-7-7-7-7-7-7-7-9-9-9-9-9-9-9-9-5-5-5-5-5-5-5-5--|


Ending:
G|--------|
D|--------|
A|7~------|
E|--------|

************************************

| ~ Vibrato

Almost there ...

Sign in to get your own page with links to favourite songs and more. You are just one click away...

Login with Facebook Login with Google