Log in

One click and you are in

Login with Facebook Login with Google

Why sign up and log in

Guitar Tabs Explorer
Maybe A Band guitar tabs for Pictures

Guitar tabs

Intro:

Guitar 1

e|-------------------------------------------------|
B|----12h14-p12------------------------------------|
G|---------------13-14-13-11-13--------------------|
D|-------------------------------11--13-14-16--14--|
A|-------------------------------------------------| X4
E|-------------------------------------------------|

Lead Guitar

     A chord diagramE MajorE    A chord diagramBB     A chord diagramF#F#    A chord diagramA majorA
e|-------------------------------------------------|
B|-------------------------------------------------|
G|--------4-4-4-------2-2-2------------------------|
D|---2-2--4-4-4--4-4--2-2-2------------------------|
A|---2-2--2-2-2--4-4--0-0-0------------------------| X4
E|---0-0---------2-2-------------------------------|


Verse:

Guitar 1

e|--------------------------------------------------------------------|
B|--------------------------------------------------------------------|
G|--------------------------------------------------------------------|
D|---------------------------------4-4-4-6-6-6-7-7-7-6-6-6-4-4-6-p4---|
A|-7-7-7-7-7-7-7-7-6-6-6-6-4-4-4-4------------------------------------|
E|--------------------------------------------------------------------|
PM . . . . . . . . . . . . . . . . . . . . . . . . . . . . . . . . . .

e|--------------------------------------------------------------------|
B|--------------------------------------------------------------------|
G|--------------------------------------------------------------------|
D|---------------------------------6-6-6-7-7-7-9-9-9-7-7-7-6-6-6-7-p6-|
A|-7-7-7-7-7-7-7-7-6-6-6-6-4-4-4-4------------------------------------| X2
E|--------------------------------------------------------------------|
PM . . . . . . . . . . . . . . . . . . . . . . . . . . . . . . . . .

Lead Guitar

     A chord diagramE MajorE         A chord diagramBB                    A chord diagramC#C#            A chord diagramA majorA
e|------------------------------------------------------------------|
B|------------------------------------------------------------------|
G|9-9-9-9-9-9-----------------------6-6-6-6-6-6---------------------|
D|9-9-9-9-9-9--9-9-9-9-9-9-9-9-9-9--6-6-6-6-6-6--7-7-7-7-7-7-7-7-7-7|
A|7-7-7-7-7-7--9-9-9-9-9-9-9-9-9-9--4-4-4-4-4-4--7-7-7-7-7-7-7-7-7-7|
E|-------------7-7-7-7-7-7-7-7-7-7---------------5-5-5-5-5-5-5-5-5-5|
PM. . . . . .  . . . . . . . . . .  . . . . . .  . . . . . . . . . .   x2
    A chord diagramE MajorE             A chord diagramBB           A chord diagramAbAb           A chord diagramA majorA            A chord diagramBB
e|-------------------------------------------------------------|
B|-------------------------------------------------------------|
G|--9-9-9-9-9-9------------------------------------------------|
D|--9-9-9-9-9-9--9-9-9-9-9-9--6-6-6-6-6-6--7-7-7-7-7-7--9-9-9-9|
A|--7-7-7-7-7-7--9-9-9-9-9-9--6-6-6-6-6-6--7-7-7-7-7-7--9-9-9-9|
E|---------------7-7-7-7-7-7--4-4-4-4-4-4--5-5-5-5-5-5--7-7-7-7|
PM  . . . . . .  . . . . . .  . . .  . .   . . . . . .  . . . .


Pre-Chorus:

Guitar 1

   C#min   Bmaj     Amaj   Emaj
e|-----------------------------7----7---9-----|
B|------5----------------------9----9---9-----|
G|-------------8-----6---------9----9---9-----|
D|----6--------------7-------9----9-----9-----|
A|--4--------9-------7-----7-----7-----7------| X2
E|---------7-------5--------------------------|

e|--------------------------------------------|
B|--------------------\10-10-10-9-9-9-7-7-----|
G|---\9-9-9-8-8-8-6-6-------------------------|
D|--------------------------------------------|
A|--------------------------------------------| X2
E|--------------------------------------------|


Lead Guitar: Barré

     C#min   Bmaj   Amaj   Emaj             C#min   Abmaj   Amaj   Emaj     C#min   Abmaj   Amaj   Bmaj
e|---4-------2------0------7----|       |---4------4-------5-------7---|---4-------4-------5------7--------|
B|---5-------4------2------9----|       |---5------4-------5-------9---|---5-------4-------5------7--------|
G|---6-------4------2------9----|       |---6------5-------6-------9---|---6-------5-------6------8--------|
D|---6-------4------2------9----|       |---6------6-------7-------9---|---6-------6-------7------9--------|
A|---4-------2------0------7----| X2    |---4------6-------7-------7---|---4-------6-------7------9--------|
E|---x-------x------x------x----|       |---x------4-------5-------x---|---x-------4-------5------7--------|



Chorus:

Guitar riff 1

e|---16-16-16-14-14-14-12-12-12-14-14-14-14-14-----16-16-16-14-14-14-12-12-12-12-12---|
B|------------------------------------------------------------------------------------|
G|------------------------------------------------------------------------------------|
D|------------------------------------------------------------------------------------|
A|------------------------------------------------------------------------------------|
E|------------------------------------------------------------------------------------|

e|---16-16-16-14-14-14-21-21-21-19-19-19-19-----19-17-16------------------------------|
B|------------------------------------------------------------------------------------|
G|------------------------------------------------------------------------------------|
D|------------------------------------------------------------------------------------|
A|------------------------------------------------------------------------------------|
E|------------------------------------------------------------------------------------|

Guitar riff 2
e|---7-5-4-0---7-4-0---7-5-4-5-4-2-4-2-0---|
B|-----------------------------------------|
G|-----------------------------------------|
D|-----------------------------------------|
A|-----------------------------------------|
E|-----------------------------------------|


Lead guitar

    A chord diagramE MajorE     A chord diagramC#C#      A chord diagramAbAb    A chord diagramA majorA      A chord diagramAbAb A chord diagramF#F#  A chord diagramAbAb
e|------------------------------------------|
B|------------------------------------------|
G|--------6-6-6-----------------------------|
D|-2-2-2--6-6-6--6-6-6--7-7-7--6--4--6------|
A|-2-2-2--4-4-4--6-6-6--7-7-7--6--4--6------|
E|-0-0-0--x-x-x--4-4-4--5-5-5--4--2--4------|


   A chord diagramE MajorE      A chord diagramAbAb     A chord diagramC#C#     A chord diagramA majorA      A chord diagramBB  A chord diagramA majorA  A chord diagramAbAb
e|--------------------------------------|
B|--------------------------------------|
G|---------------6-6-6---------4--------|
D|-2-2-2--6-6-6--6-6-6--7-7-7--4--7--6--|
A|-2-2-2--6-6-6--4-4-4--7-7-7--2--7--6--| X2
E|-0-0-0--4-4-4--x-x-x--5-5-5-----5--4--|


Instrumental:

Guitar 1

e|-------------------------------------------------|
B|----12h14-p12------------------------------------|
G|---------------13-14-13-11-13--------------------|
D|-------------------------------11--13-14-16--14--|
A|-------------------------------------------------| X4
E|-------------------------------------------------|

Lead Guitar

     A chord diagramE MajorE    A chord diagramBB     A chord diagramF#F#    A chord diagramA majorA
e|-------------------------------------------------|
B|-------------------------------------------------|
G|--------4-4-4-------2-2-2------------------------|
D|---2-2--4-4-4--4-4--2-2-2------------------------|
A|---2-2--2-2-2--4-4--0-0-0------------------------| X4
E|---0-0---------2-2-------------------------------|


Verse:

Guitar 1

e|--------------------------------------------------------------------|
B|--------------------------------------------------------------------|
G|--------------------------------------------------------------------|
D|---------------------------------4-4-4-6-6-6-7-7-7-6-6-6-4-4-6-p4---|
A|-7-7-7-7-7-7-7-7-6-6-6-6-4-4-4-4------------------------------------|
E|--------------------------------------------------------------------|
PM . . . . . . . . . . . . . . . . . . . . . . . . . . . . . . . . . .

e|--------------------------------------------------------------------|
B|--------------------------------------------------------------------|
G|--------------------------------------------------------------------|
D|---------------------------------6-6-6-7-7-7-9-9-9-7-7-7-6-6-6-7-p6-|
A|-7-7-7-7-7-7-7-7-6-6-6-6-4-4-4-4------------------------------------| X2
E|--------------------------------------------------------------------|
PM . . . . . . . . . . . . . . . . . . . . . . . . . . . . . . . . .

Lead Guitar

     A chord diagramE MajorE         A chord diagramBB                    A chord diagramC#C#            A chord diagramA majorA
e|------------------------------------------------------------------|
B|------------------------------------------------------------------|
G|9-9-9-9-9-9-----------------------6-6-6-6-6-6---------------------|
D|9-9-9-9-9-9--9-9-9-9-9-9-9-9-9-9--6-6-6-6-6-6--7-7-7-7-7-7-7-7-7-7|
A|7-7-7-7-7-7--9-9-9-9-9-9-9-9-9-9--4-4-4-4-4-4--7-7-7-7-7-7-7-7-7-7|
E|-------------7-7-7-7-7-7-7-7-7-7---------------5-5-5-5-5-5-5-5-5-5|
PM. . . . . .  . . . . . . . . . .  . . . . . .  . . . . . . . . . .   x2
    A chord diagramE MajorE             A chord diagramBB           A chord diagramAbAb           A chord diagramA majorA            A chord diagramBB
e|-------------------------------------------------------------|
B|-------------------------------------------------------------|
G|--9-9-9-9-9-9------------------------------------------------|
D|--9-9-9-9-9-9--9-9-9-9-9-9--6-6-6-6-6-6--7-7-7-7-7-7--9-9-9-9|
A|--7-7-7-7-7-7--9-9-9-9-9-9--6-6-6-6-6-6--7-7-7-7-7-7--9-9-9-9|
E|---------------7-7-7-7-7-7--4-4-4-4-4-4--5-5-5-5-5-5--7-7-7-7|
PM  . . . . . .  . . . . . .  . . .  . .   . . . . . .  . . . .


Pre-Chorus:

Guitar 1

   C#min   Bmaj     Amaj   Emaj
e|-----------------------------7----7---9-----|
B|------5----------------------9----9---9-----|
G|-------------8-----6---------9----9---9-----|
D|----6--------------7-------9----9-----9-----|
A|--4--------9-------7-----7-----7-----7------| X2
E|---------7-------5--------------------------|

e|--------------------------------------------|
B|--------------------\10-10-10-9-9-9-7-7-----|
G|---\9-9-9-8-8-8-6-6-------------------------|
D|--------------------------------------------|
A|--------------------------------------------| X2
E|--------------------------------------------|


Lead Guitar: Barré

     C#min   Bmaj   Amaj   Emaj             C#min   Abmaj   Amaj   Emaj     C#min   Abmaj   Amaj   Bmaj
e|---4-------2------0------7----|       |---4------4-------5-------7---|---4-------4-------5------7--------|
B|---5-------4------2------9----|       |---5------4-------5-------9---|---5-------4-------5------7--------|
G|---6-------4------2------9----|       |---6------5-------6-------9---|---6-------5-------6------8--------|
D|---6-------4------2------9----|       |---6------6-------7-------9---|---6-------6-------7------9--------|
A|---4-------2------0------7----| X2    |---4------6-------7-------7---|---4-------6-------7------9--------|
E|---x-------x------x------x----|       |---x------4-------5-------x---|---x-------4-------5------7--------|


Chorus:

Guitar riff 1

e|---16-16-16-14-14-14-12-12-12-14-14-14-14-14-----16-16-16-14-14-14-12-12-12-12-12---|
B|------------------------------------------------------------------------------------|
G|------------------------------------------------------------------------------------|
D|------------------------------------------------------------------------------------|
A|------------------------------------------------------------------------------------|
E|------------------------------------------------------------------------------------|

e|---16-16-16-14-14-14-21-21-21-19-19-19-19-----19-17-16------------------------------|
B|------------------------------------------------------------------------------------|
G|------------------------------------------------------------------------------------|
D|------------------------------------------------------------------------------------|
A|------------------------------------------------------------------------------------|
E|------------------------------------------------------------------------------------|

Guitar riff 2
e|---7-5-4-0---7-4-0---7-5-4-5-4-2-4-2-0---|
B|-----------------------------------------|
G|-----------------------------------------|
D|-----------------------------------------|
A|-----------------------------------------|
E|-----------------------------------------|


Lead guitar

    A chord diagramE MajorE     A chord diagramC#C#      A chord diagramAbAb    A chord diagramA majorA      A chord diagramAbAb A chord diagramF#F#  A chord diagramAbAb
e|------------------------------------------|
B|------------------------------------------|
G|--------6-6-6-----------------------------|
D|-2-2-2--6-6-6--6-6-6--7-7-7--6--4--6------|
A|-2-2-2--4-4-4--6-6-6--7-7-7--6--4--6------|
E|-0-0-0--x-x-x--4-4-4--5-5-5--4--2--4------|


   A chord diagramE MajorE      A chord diagramAbAb     A chord diagramC#C#     A chord diagramA majorA      A chord diagramBB  A chord diagramA majorA  A chord diagramAbAb
e|--------------------------------------|
B|--------------------------------------|
G|---------------6-6-6---------4--------|
D|-2-2-2--6-6-6--6-6-6--7-7-7--4--7--6--|
A|-2-2-2--6-6-6--4-4-4--7-7-7--2--7--6--| X2
E|-0-0-0--4-4-4--x-x-x--5-5-5-----5--4--|


Interlude:

(Piano, bass, brass)

Guitar 1

e|-----------------------------------------------------------------------------------------------|
B|-----------------------------------------------------------------------------------------------|
G|-----------------------------------------------------------------------------------------------|
D|----13-14-13--13-14-13---13-14-13-16-14-13-----------------------------------------------------|
A|-----------------------------------------------------------------------------------------------|
E|-----------------------------------------------------------------------------------------------|

e|-----------------------------------------------------------------------------------------------|
B|-----------------------------------------------------------------------------------------------|
G|-----------------------------------------------------------------------------------------------|
D|---13-14-13---13-14-13--13-14-13-14-16-14-13---13-14-13-13-14-13-13-14-13-13-13-14-16-14-13----|
A|-----------------------------------------------------------------------------------------------|
E|-----------------------------------------------------------------------------------------------|

e|-----------------------------------------------------------------------------------------------|
B|-----------------------------------------------------------------------------------------------|
G|-----------------------------------------------------------------------------------------------|
D|---13-14-13-13-14-13-13-14-13-14-13-13-13-13-13------------------------------------------------|
A|-----------------------------------------------------------------------------------------------|
E|-----------------------------------------------------------------------------------------------|


Chorus:

Guitar riff 1

e|---16-16-16-14-14-14-12-12-12-14-14-14-14-14-----16-16-16-14-14-14-12-12-12-12-12---|
B|------------------------------------------------------------------------------------|
G|------------------------------------------------------------------------------------|
D|------------------------------------------------------------------------------------|
A|------------------------------------------------------------------------------------|
E|------------------------------------------------------------------------------------|

e|---16-16-16-14-14-14-21-21-21-19-19-19-19-----19-17-16------------------------------|
B|------------------------------------------------------------------------------------|
G|------------------------------------------------------------------------------------|
D|------------------------------------------------------------------------------------|
A|------------------------------------------------------------------------------------|
E|------------------------------------------------------------------------------------|

Guitar riff 2
e|---7-5-4-0---7-4-0---7-5-4-5-4-2-4-2-0---|
B|-----------------------------------------|
G|-----------------------------------------|
D|-----------------------------------------|
A|-----------------------------------------|
E|-----------------------------------------|


Lead guitar

    A chord diagramE MajorE     A chord diagramC#C#      A chord diagramAbAb    A chord diagramA majorA      A chord diagramAbAb A chord diagramF#F#  A chord diagramAbAb
e|------------------------------------------|
B|------------------------------------------|
G|--------6-6-6-----------------------------|
D|-2-2-2--6-6-6--6-6-6--7-7-7--6--4--6------|
A|-2-2-2--4-4-4--6-6-6--7-7-7--6--4--6------|
E|-0-0-0--x-x-x--4-4-4--5-5-5--4--2--4------|


   A chord diagramE MajorE      A chord diagramAbAb     A chord diagramC#C#     A chord diagramA majorA      A chord diagramBB  A chord diagramA majorA  A chord diagramAbAb
e|--------------------------------------|
B|--------------------------------------|
G|---------------6-6-6---------4--------|
D|-2-2-2--6-6-6--6-6-6--7-7-7--4--7--6--|
A|-2-2-2--6-6-6--4-4-4--7-7-7--2--7--6--| X2
E|-0-0-0--4-4-4--x-x-x--5-5-5-----5--4--|


Guitar riff 1

e|---16-16-16-14-14-14-12-12-12-14-14-14-14-14-----16-16-16-14-14-14-12-12-12-12-12---|
B|------------------------------------------------------------------------------------|
G|------------------------------------------------------------------------------------|
D|------------------------------------------------------------------------------------|
A|------------------------------------------------------------------------------------|
E|------------------------------------------------------------------------------------|

e|---16-16-16-14-14-14-21-21-21-19-19-19-19-----19-17-16------------------------------|
B|------------------------------------------------------------------------------------|
G|------------------------------------------------------------------------------------|
D|------------------------------------------------------------------------------------|
A|------------------------------------------------------------------------------------|
E|------------------------------------------------------------------------------------|

Guitar riff 2
e|---7-5-4-0---7-4-0---7-5-4-5-4-2-4-2-0---|
B|-----------------------------------------|
G|-----------------------------------------|
D|-----------------------------------------|
A|-----------------------------------------|
E|-----------------------------------------|


Lead guitar

    A chord diagramE MajorE     A chord diagramC#C#      A chord diagramAbAb    A chord diagramA majorA      A chord diagramAbAb A chord diagramF#F#  A chord diagramAbAb
e|------------------------------------------|
B|------------------------------------------|
G|--------6-6-6-----------------------------|
D|-2-2-2--6-6-6--6-6-6--7-7-7--6--4--6------|
A|-2-2-2--4-4-4--6-6-6--7-7-7--6--4--6------|
E|-0-0-0--x-x-x--4-4-4--5-5-5--4--2--4------|


   A chord diagramE MajorE      A chord diagramAbAb     A chord diagramC#C#     A chord diagramA majorA      A chord diagramBB  A chord diagramA majorA  A chord diagramAbAb
e|--------------------------------------|
B|--------------------------------------|
G|---------------6-6-6---------4--------|
D|-2-2-2--6-6-6--6-6-6--7-7-7--4--7--6--|
A|-2-2-2--6-6-6--4-4-4--7-7-7--2--7--6--| X2
E|-0-0-0--4-4-4--x-x-x--5-5-5-----5--4--|



************************************

| x   Dead note
| h   Hammer-on
| p   Pull-off
| \   Slide down
| PM  Palm mute

Almost there ...

Sign in to get your own page with links to favourite songs and more. You are just one click away...

Login with Facebook Login with Google