Log in

One click and you are in

Login with Facebook Login with Google

Why sign up and log in

Guitar Tabs Explorer
Dave Matthews Band tabs for Where are you going

Guitar tabs with lyrics

Tabbed by Tony Amodio
corrected by Ryan Lloyd rdlloyd@hotmail.com

chorus corrected by Michael Geer Columbus19@aol.com
additional corrections Aaron Stepp tbone@glasgow-ky.com
This is a really good song, it's going to be the next single.
Listen to the songs for strumming patters

Intro
----------------------------------------------------
--------3--------3-3-3-3--------3---------3-3-3-3---
----0h2----------2-2-2-2----0h2-----------2-2-2-2---repeat
-----------0-----0-0-0-0-----------0------0-0-0-0---
----------------------------------------------------
----------------------------------------------------

               Where are you going...
----------------------------------------------------
-------3---------3-3-3-3-----3----------------------
---0h2-----------2-2-2-2--------------4-----2-------
----------0------0-0-0-0--------------4-----2-------
-----------------------------2--------2-------------
-----------------------------3----------------------

--------------------------------------
---3-3-3-3-----3----------------------
---2-2-2-2-----------4------2---------
---0-0-0-0-----------4------2---------
---------------2-----2----------------
---------------3----------------------


chorus=20

I am no superman...
----------------------------------------------------
--------3------------3------------3------------3----
----------------------------------------------------
----------------------------------------------------
---5----5-------3----3-------2----2-------1----1----
----------------------------------------------------

or for a fuller sound
----------------------------
----------------------------
---7-----5-----4-----3------
---7-----5-----4-----3------
---5-----3-----2-----1------
----------------------------

Please e-mail me for any corrections. Crimsknght83@aol.com
"Leave all the lights on"

*CORRECTIONS*


I think these are corrections....  It may be just what I am hearing=20
but it seems right to me.

First off the intro is

A chord diagramD MajorD    A chord diagramG+G     A chord diagramB minorBm     A chord diagramA augmentedA

or tabbed. =20

A chord diagramD MajorD           A chord diagramG+G
----------------------------------3-3-3-3-----
----------3--3-3-3-3----------3---3-3-3-3-----
----0h2------2-2-2-2----0h2-------0-0-0-0-----
-------------0-0-0-0--------------0-0-0-0-----
----------------------------------------------
----------------------------------------------

A chord diagramB minorBm          A chord diagramA augmentedA              =20
-----------------------------------------------
----------3--3-3-3-3----------3---2-2-2-2------
----0h2------4-4-4-4----0h2-------2-2-2-2------
-------------4-4-4-4--------------2-2-2-2------
----------------------------------0-0-0-0------
-----------------------------------------------

the chorus is

I am no superman.......
----------------------------------------------
------3-3-3-----3-3-3-----3---3-----3---3-----
----2---2-----2---2-----0---0-----0---0-------
--0-------------------------------------------
------------3---------2---------1-------------
----------------------------------------------

 email me if anything is wrong.=20


*CHORUS CORRECTION*


I am no Superman...

A chord diagramD MajorD   A chord diagramC majorC   A chord diagramB minorBm  A chord diagramBb majorBb

I have no reasons(answers)...

A chord diagramD MajorD   A chord diagramC majorC   A chord diagramB minorBm  A chord diagramBb majorBb

I am no hero...

A chord diagramD MajorD   A chord diagramC majorC   A chord diagramB minorBm  A chord diagramBb majorBb

But I do know..

A chord diagramD MajorD   A chord diagramC majorC   A chord diagramD MajorD   A chord diagramD MajorD

Where you are...

A chord diagramD MajorD   A chord diagramD MajorD   A chord diagramD MajorD   A chord diagramD MajorD

Know where you go...

A chord diagramC majorC   A chord diagramC majorC   A chord diagramC majorC   A chord diagramC majorC


*Other than that, that tab looks correct.

All these guys are real close.  I was really really bored one
day and watched the Letterman performance.  There were some
differences in that performance and the cd, so i've gone with the
cd where possible.

The intro number 2 above is right until the A chord diagramBB minor section.

A chord diagramB minorBm         A chord diagramG+G
----2--22----2--22
----3--33----3--33
-0h2--4---0h2-0---
------------------
------------------
------------------
Dave Matthews has a habit of playing voicings of chords that=20
pull strongly towards the tonic.  This song is no exception.
I hear a different chord than Mr. Matthews plays in the=20
Letterman performance, so I will notate both chords, and=20
let you decide.  Most of the chords in the verse have no=20
high e string in it.

The pattern is D, Gsus2, Bmin7, Asus7.  The Letterman
Performance shows Mr. Matthews going back to the A chord diagramGsus2Gsus2
Instead of the Asus7.  Maybe I need to clean my ears, but
that's not the chord I hear.  I might be deceived by the bass
playing an A chord diagramA augmentedA below the Gsus2.  Go with what you hear as right.
Also, there is also a hammer-on thrown in on occasion on the=20
A chord diagramG+G string like in the intro.  The 0h2, then strum the chord.

Chords:
  A chord diagramD MajorD   A chord diagramGsus2Gsus2 Bmin7 Asus7
-(2)------------------
--3-----3-----3-----3-
--2-----2-----2-----2-
--0-----0----(0)----2-
--------------2-----0-
--------3-------------

The bridge part is kind of weird, cause the Stefan Lessard isn't playing
the roots to the chords in all cases.  The first two chords are A chord diagramD MajorD and
a flavor of A chord diagramC majorC (sus2).  But, the last two chords are both A chord diagramG+G chords.
The strong pull to the A chord diagramBB and A chord diagramBb majorBb (flat) are caused by Lessard inverting
the chords.  If you're playing with a bass player, or are a purist of a
sort, play the first chords listed.  If you're playing solo, the second
chords create a stronger feel towards what you hear..

Chords:
  A chord diagramD MajorD   A chord diagramCsus2Csus2 A chord diagramG+G  Gminor
-------(3)--3----3------
--3-----3---3----3------
--2-----0---0----0------
--0---------0----0------
--------3---2----1------
------------3----3------

Chords:
  A chord diagramD MajorD   A chord diagramCsus2Csus2 A chord diagramG+G  Gminor
-------(3)-(3)--(3)-----
--3-----3---3----3------
--2-----0---0----0------
--0---------0----0------
--------3---2----1------
------------------------

These corrections should have you playing right along (i think...)  I = forget
how the soprano sax solo goes, and all i remember is it starts on an = Emin(7 ).

Other versions of Where Are You Going

Where are you goingChords
Where are you going (Ver. 2)Chords
Where are you going acousticTabs

Almost there ...

Sign in to get your own page with links to favourite songs and more. You are just one click away...

Login with Facebook Login with Google