Log in

One click and you are in

Login with Facebook Login with Google

Why sign up and log in

Guitar Tabs Explorer
Dave Matthews Band tabs for What would you say

Guitar tabs

"What Would You Say"

from Dave Matthews Band
Under The Table and Dreaming

Intro

Figure 1                              1/2
---------------------------- ----------`--------
--------------3~5-5----5---- ---2-2-2--2--0-----
--------4~2-------4----4--0- ---2-2-2-------2---
------5-------------------0- ---2-2-2---------2-
---------------------------- -------------------
(3)~5-------x-------5------- -3-----------------

play Figure 1 - 3 times

---------------------------- -------------
--------------3~5-5----5---- -------------
--------4~2-------4----4--0- -------------
------5-------------------0- -2-----------
---------------------------- -------------
(3)~5-------x-------5------- -3-----------

play Figure 1 - 3 times

---------------------------- ---------------------
--------------3~5-5----5---- -2--2--2--2--2~1~2-2-
--------4~2-------4----4--0- -2--2--2--2--2~1~2-2-
------5-------------------0- -2--2--2--2--2~1~2-2-
---------------------------- ---------------------
(3)~5-------x-------5------- -3--3--3--3--3~2~3-3-


Verse 1

Up and down the puppies' hair.....

play Figure 1 - 3 times

              .....cause of orginal sin.
---------------------------- ------------------------
--------------3~5-5----5---- ------------------------
--------4~2-------4----4--0- -4--2--x-----2--2-2-x-x-
------5-------------------0- -2--2--x-----2--2-2-x-x-
---------------------------- ------------------------
(3)~5-------x-------5------- -3--3--x--3--3--3-3-x-x-


Pre-Chorus

Rip away the tears.....

Dave
-1--- -3--- -5--- -3--- -1---0--- -1---3----
-1--- -3--- -5--- -3--- -1---0--- -1---3----
-2--- -4--- -5--- -4--- -2---2--- -2---4----
-3--- -5--- -7--- -5--- -3---2--- -3---5----
-3--- -5--- -7--- -5--- -3---2--- -3---5----
-1--- -3--- -5--- -3--- -1---0--- -1---3----
Tim
-5--- -7--- -5--- -7--- -5---0--- -5---7----
----- ----- -5--- ----- -----0--- ----------
-5--- -7--- -5--- -7--- -5---2--- -5---7----
-3--- -5--- -7--- -5--- -3---2--- -3-----5--
----- ----- ----- ----- -----2--- ----------
----- ----- ----- ----- -----0--- ----------

Dave                          ...What would you say?
---------------------------- -------------
--------------3~5-5----5---- -------------
--------4~2-------4----4--0- -------------
------5-------------------0- ---2---------
---------------------------- -------------
(3)~5-------x-------5------- ---3---------
Tim
---------------------------- -------------
----5-----------------~8---- -H-3---------
--5-6-----------------~9---- 3--4---------
---H--5--------------------- ---5---------
---------------------------- ---5---------
---------------------------- -------------


Chorus

Dave                          ...if you a monkey....
---------------------------- -------------
--------------3~5-5----5---- -------------
--------4~2-------4----4--0- -2----2---2--
------5-------------------0- -0----0---0--
---------------------------- -------------
(3)~5-------x-------5------- -3----3---3--
Tim
---------------------------- -------------
----5-----------------~8---- -H-3-----~6--
--5-6-----------------~9---- 3--4-----~7--
---H--5--------------------- ---5---------
---------------------------- ---5---------
---------------------------- -------------

Dave                          ...if you a doggie....
---------------------------- ---------------
--------------3~5-5----5---- ---------------
--------4~2-------4----4--0- -2----2---2----
------5-------------------0- -0----0---0----
---------------------------- ---------------
(3)~5-------x-------5------- -3----3---3----
Tim
---------------------------- ---------------
----5-----------------~8---- -H-3-----------
--5-6-----------------~9---- 3--4-----------
---H--5--------------------- ---5---7-5-5-7-
---------------------------- ---5-----------
---------------------------- ---------------

Dave                          ...what would you say?
---------------------------- -------------
--------------3~5-5----5---- -------------
--------4~2-------4----4--0- -2----2---2--
------5-------------------0- -0----0---0--
---------------------------- -------------
(3)~5-------x-------5------- -3----3---3--
Tim
---------------------------- -------------
----5-----------------~8---- -H-3-----~6--
--5-6-----------------~9---- 3--4-----~7--
---H--5--------------------- ---5---------
---------------------------- ---5---------
---------------------------- -------------

Dave
---------------------------- ---------------------
--------------3~5-5----5---- ---------------------
--------4~2-------4----4--0- -2-------------------
------5-------------------0- -2--2--4--4--2--2--2-
---------------------------- ---------------------
(3)~5-------x-------5------- -3--3--3--3--3--3--3-
Tim
----------------------------
----5-----------------------
--5-6-----------------------
---H--5---------------------
----------------------------
----------------------------


Verse 2

I was there when the bear ate his head.....

Figure 1 - 3 times
                        ....look in the mirror....
---------------------------- -------------
--------------3~5-5----5---- -------------
--------4~2-------4----4--0- -------------
------5-------------------0- -2-----------
---------------------------- -------------
(3)~5-------x-------5------- -3-----------


Pre-Chorus

I don't understand, at best.........

Dave
-1--- -3--- -5--- -3--- -1---0--- -1---3----
-1--- -3--- -5--- -3--- -1---0--- -1---3----
-2--- -4--- -5--- -4--- -2---2--- -2---4----
-3--- -5--- -7--- -5--- -3---2--- -3---5----
-3--- -5--- -7--- -5--- -3---2--- -3---5----
-1--- -3--- -5--- -3--- -1---0--- -1---3----
Tim
-5--- -7--- -5--- -7--- -5---0--- -5---7----
----- ----- -5--- ----- -----0--- ----------
-5--- -7--- -5--- -7--- -5---2--- -5---7----
-3--- -5--- -7--- -5--- -3---2--- -3-----5--
----- ----- ----- ----- -----2--- ----------
----- ----- ----- ----- -----0--- ----------

Dave                          ...What would you say?
---------------------------- -------------
--------------3~5-5----5---- -------------
--------4~2-------4----4--0- -------------
------5-------------------0- ---2---------
---------------------------- -------------
(3)~5-------x-------5------- ---3---------
Tim
---------------------------- -------------
----5-----------------~8---- -H-3---------
--5-6-----------------~9---- 3--4---------
---H--5--------------------- ---5---------
---------------------------- ---5---------
---------------------------- -------------


Chorus

play Figure 1 - 3 times


Every dog has it's day..........

play Figure 1 then

         ....Mom, it's my birthday...

Dave
------------------------ -------
------------------------ -------
--------4~2------------- -------
------5--------5--5--5-- -2-----
------------------------ -------
(3)~5-------x--5--5--5-- -3-----
Tim
------------------------ -------
------------------------ -0-----
--------4~2----2--2--2-- -------
------5--------2--2--2-- -2-----
---------------0--0--0-- -------
(3)~5-------x----------- -3-----

Dave                       ...what would you say?
---------------------------- -------------
--------------3~5-5----5---- -------------
--------4~2-------4----4--0- -------------
------5-------------------0- ---2---------
---------------------------- -------------
(3)~5-------x-------5------- ---3---------
Tim
---------------------------- -------------
----5-----------------~8---- -H-3---------
--5-6-----------------~9---- 3--4---------
---H--5--------------------- ---5---------
---------------------------- ---5---------
---------------------------- -------------

repeat last 2 bars


--------------------- --------------------
-----8-----8--8-8--0- -------0------------
-9---7-----6--6-6--0- -2--3--2------------
-----5-----5--5-5--0- -2--2--0----------2-
-7---7--0--7--7-7---- -0--3--2------------
--------------------- ----------0-3-0-0---
                                   P
---------------------- --------------------
------8-----8--8-8--0- -------0------------
------7-----6--6-6--0- -2--3--2----7~9-9-9-
------5-----5--5-5--0- -2--2--0------------
------7--0--7--7-7---- -0--3--2----5~7-7-7-
---0------------------ ----------0---------


Sax Solo

--------------------- --------------------
-----8-----8--8-8--0- -------0------------
-9---7-----6--6-6--0- -2--3--2------------
-----5-----5--5-5--0- -2--2--0----------2-
-7---7--0--7--7-7---- -0--3--2-----P-----
--------------------- ----------0-3-0-0---

---------------------- -----------12-12-12-12-
------8-----8--8-8--0- -------0---12-12-12-12-
------7-----6--6-6--0- -2--3--2---12-12-12-12-
------5-----5--5-5--0- -2--2--0---11-11-11-11-
------7--0--7--7-7---- -0--3--2---12-12-12-12-
---0------------------ -----------------------
-11~12-12-12---11~12-12-12---12--
-11~12-12-12---11~12-12-12---12--
-11~12-12-12---11~12-12-12---12--
-10~11-11-11---10~11-11-11---11--
-11~12-12-12---11~12-12-12---12--
---------------------------------

--------------------------
------12-12---------------
11~12--------11~12-12-11--
-------9--9---------------
-9~10---------9~10-10--9--
--------------------------

-11~12-12-12---11~12-12-12---12--
-11~12-12-12---11~12-12-12---12--
-11~12-12-12---11~12-12-12---12--
-10~11-11-11---10~11-11-11---11--
-11~12-12-12---11~12-12-12---12--
---------------------------------

-------------------------------
-14--12--15-15-15-15-15-15-15--
-12--12--12-12-12-12-12-12-12--
-14--14--14-14-14-14-14-14-14--
-------------------------------
-------------------------------

-11-12---11~12-12-12---12--
-11-12---11~12-12-12---12--
-11-12---11~12-12-12---12--
-10-11---10~11-11-11---11--
-11-12---11~12-12-12---12--
---------------------------

---------------------------
---------------------------
-11--9--11~12-12-11---9----
---------------------------
--9--7---9~10-10--9---7----
---------------------------

---11-12-12--11~12-12-12---15--
---11-12-12--11~12-12-12-------
-9-11-12-12--11~12-12-12---12--
---10-11-11--10~11-11-11-------
-7-11-12-12--11~12-12-12-------
-------------------------------

-15-15--15-15-15-15-15-15-15-15-15-15----
-----------------------------------------
-12-12--12-12-12-12-12-12-12-12-12-12----
-----------------------------------------
-----------------------------------------
-----------------------------------------


Harmonica Solo - John Popper

play Figure 1 - 3 times

---------------------------- ---------------------
--------------3~5-5----5---- -2--2--2-2--2--2-2-2-
--------4~2-------4----4--0- -2--2--2-2--2--2-2-2-
------5-------------------0- -2--2--2-2--2--2-2-2-
---------------------------- ---------------------
(3)~5-------x-------5------- -3--3--3-3--3--3-3-3-



Verse 3

I was there when the bear ate his head.....

Figure 1 - 3 times

then
                  .....look in the mirror, my friend
---------------------------- -------------
--------------3~5-5----5---- -------------
--------4~2-------4----4--0- -------------
------5-------------------0- -2-----------
---------------------------- -------------
(3)~5-------x-------5------- -3-----------


Pre-Chorus

I don't understand, at best.........

Dave
-1--- -3--- -5--- -3--- -1---0--- -1---3----
-1--- -3--- -5--- -3--- -1---0--- -1---3----
-2--- -4--- -5--- -4--- -2---2--- -2---4----
-3--- -5--- -7--- -5--- -3---2--- -3---5----
-3--- -5--- -7--- -5--- -3---2--- -3---5----
-1--- -3--- -5--- -3--- -1---0--- -1---3----
Tim
-5--- -7--- -5--- -7--- -5---0--- -5---7----
----- ----- -5--- ----- -----0--- ----------
-5--- -7--- -5--- -7--- -5---2--- -5---7----
-3--- -5--- -7--- -5--- -3---2--- -3-----5--
----- ----- ----- ----- -----2--- ----------
----- ----- ----- ----- -----0--- ----------

Dave                          ...What would you say?
---------------------------- -------------
--------------3~5-5----5---- -------------
--------4~2-------4----4--0- -------------
------5-------------------0- ---2---------
---------------------------- -------------
(3)~5-------x-------5------- ---3---------
Tim
---------------------------- -------------
----5-----------------~8---- -H-3---------
--5-6-----------------~9---- 3--4---------
---H--5--------------------- ---5---------
---------------------------- ---5---------
---------------------------- -------------


The End


Scott Taylor
School of Music
The Florida State University
http://www.geocities.com/sequenzax
AOL IM: tromba1B
"Eat, drink, and be merry, for tomorrow we shall die." - Epicurus

Other versions of What Would You Say

What would you sayChords
What would you say (Ver. 2)Chords
What would you say (Ver. 2)Tabs

Almost there ...

Sign in to get your own page with links to favourite songs and more. You are just one click away...

Login with Facebook Login with Google