Log in

One click and you are in

Login with Facebook Login with Google

Why sign up and log in

Guitar Tabs Explorer
Dave Matthews Band chords for What would you say

Guitar chords with lyrics

i added the lyrics to this wonderfully jammy song.

The following is courtesy of
Ben Sterling (nebuious@aol.com)
What Would You Say
------------------


Intro/Verse/Chorus
------------------

/ = slide up


    A chord diagramA augmentedA                 A chord diagramG+G
              /             1/2 bend
e------------------------------------------|
B------------4-5---------------------------|
G------------------------4--6b--4----------|
D------5--7-------7---5------------7--5----|
A---0--------------------------------------|
E-----------------5---3--------------------|


up and..
fleas ..
'cause..

down ..
and ..
'cause..



Pre-Chorus
----------

   A chord diagramFF   A chord diagramG+G   A chord diagramA augmentedA   A chord diagramG+G   A chord diagramFF   A chord diagramE MajorE   A chord diagramFF   A chord diagramG+G   A chord diagramA augmentedA                  A chord diagramG+G
                                             /
e--1---3-------3---1---0---1---3----------------------3-----|
B--1---0---2---0---1---0---1---0------------4-5---2---0-----|
G--2---0---2---0---2---1---2---0------------------2---0-----|
D--3---0---2---0---3---2---3---0------5--7--------2---0-----|
A--1---2---0---2---1---2---1---2---0--------------0---2-----|
E--1---3-------3---1---0---1---3----------------------3-----|

rip ..
drink..
and you ..


Chorus
------

what ..
if you ..
if you ..
what would you say..

Verse
-----

i was..
thought.
knock..
there's ..


Pre-Chorus
----------

i don't..
the ..


Verse
-----

every ..
mom--..




What Would You Say?
^^^^^^^^^^^^^^^^^^^
Dave Matthews Band

Tab by David Sweet


Std. Tuning.

/   - slide up
\   - slide down
^   - bend
_   - tie/slur
(#) - ghost note

There are two guitars playing at the beginning of the song.  This is the
basic riff from the guitar in the left speaker.  The right guitar is the
same, but perhaps with more percussive noise.  Also, the second time this

riff is played it is a little different, but then reverts back to the
original form for the rest of the song.  Maybe it's just me, but the
second version sounds like it's just a mistake.


Verse:

  A chord diagramA9A9                    A9/G
                             v--C# bent up about 1/4
---X--------0_-------------------------------||
---X--------/5----5-------2-2^_2-------------||
---X---4\(0)------4--------------4-2--------*||
---5-5------------5------------------2------*||
---X--------------X--------------------------||
---5------------5-5-----3--------------------||


Bridge:
Here the meter switches to 3/4.  The notation is supposed to resemble
slash ryhthm notation.  The chord forms are all standard 6th-string-root
barre chords.

A chord diagramFF              A chord diagramG+G              A chord diagramA minorAm             A chord diagramG+G

/  / /  / /  |  /  / /  / /  |  /  / /  / /  |  /  / /  / /
|  | |  | |  |  |  | |  | |  |  |  | |  | |  |  |  | |  | |
'  ---  ---  |  '  ---  ---  |  '  ---  ---  |  '  ---  ---

(back to 4/4)

A chord diagramFF    A chord diagramE MajorE             A chord diagramFF    A chord diagramG+G

/  / /__/ /  /  |  /  / /__/ /  /
|  | |  | |  |  |  |  | |  | |  |
'  ---  ---  '  |  '  ---  ---  '


The ending:
I'll just give the chords since the rhythms are not consistent and the
duration of each can easily heard on the recording:

     v--sometimes A chord diagramG+G
----(3)-------------------------------------------------------------------
--3--2--2-2-4-------------------------------------------------------------
--2--3--2-3-4-------------------------------------------------------------
--2--2--2-2-4-------------------------------------------------------------
--0--0--0-0-2-------------------------------------------------------------
---------------0-3_0-0-0--------------------------------------------------
          ^-^------------These last two may not be right...

Other versions of What Would You Say

What would you say (Ver. 2)Chords
What would you sayTabs
What would you say (Ver. 2)Tabs

Almost there ...

Sign in to get your own page with links to favourite songs and more. You are just one click away...

Login with Facebook Login with Google