Wasting Time by Dave Matthews Band

Wasting Time tab by Dave Matthews Band

Guitar tabs

Wasting Time - Dave Matthews Band
Tab by Rohan Khemraj

The tuning is standard. (E A D G B e)

This riff is played through the verses. It's in the key of A#maj.
|--------------------------------------|
|-6--6-6----6-4-3-4-4-4p3-3-4-4-4h6----|
|-3--3-3----3-3-3-3-3-3-3-3-3-3-3-3----|
|--------------------------------------|
|--------------------------------------|
|--------------------------------------|


This is the chorus. It is played quite softly and may sound a little
strange if your not playing with a band. Listen carefully to the song to
get the correct strum pattern.
|---------------------------------|-----------------------------------|
|-3-3-3-3-3-3-3-3-3-3-3-3-3-3-3-3-|-6-6-6-6-6-6-6-6-6-6-6-6-6-6-6-6---|
|-3-3-3-3-3-3-3-3-3-3-3-3-3-3-3-3-|-3-3-3-3-3-3-3-3-3-3-3-3-3-3-3-3---|
|-3-3-3-3-3-3-3-3-3-3-3-3-3-3-3-3-|-3-3-3-3-3-3-3-3-3-3-3-3-3-3-3-3---|
|---------------------------------|-----------------------------------|
|---------------------------------|-----------------------------------|


This is the part played at time 2:52. Listen to the song to get the timing
right.
|------------------------------------|
|---------------------------4-5-6----|
|-3-----3---3---3-----------3-4-5----|
|-3-------3-------2-----5-5-1-2-3----|
|-1---1-------1-----2-3-3-3----------|
|------------------------------------|

If you have any comments or better tab for this song, please sent it to me
at
capt_crazy@hotmail.com

* Generated using Power Tab Editor by B.S. Larsen -
http://www.crosswinds.net/~powertab *

Find guitar tabs and chords

A B C D E F G H I J K L M N O P Q R S T U V W X Y Z #