Warehouse by Dave Matthews Band

Warehouse tab by Dave Matthews Band

Guitar tabs

Mine is quite a bit more accurate than the TAB posted.

submitted by Scott Taylor - Tallahassee, FL
pabstbr@hotmail.com

"Warehouse" - Dave Matthews Band

Intro and Verse
open notes - Tim Reynolds (acoustic)
------0--0---------------0------------
0-0-0-------0-0-0-0-0--0----0-0-0-0---
--------------7-7-----------x-x-x-x---
--------11-11-----9-9-------x-x-x-x---
----9-9---------------10-10-x-x-x-x---
7-7-------------------------x-x-x-x---
fretted notes - Dave Matthews (acoustic)

------0--0----------------0---------
0-0-0-------0-0-0-0-0--0----0-0-0-0-
--------------7-7-------------------
--------11-11-----9-9---------------
----9-9---------------10-10-9-9-7-7-
7-7---------------------------------

Pre-Chorus - Leave all the lights on.....
-----------------------------------------------------
-----------------------------------------------------
-----------------------------------------------------
--7-7-7-7---7-7-7-7-7-7-7----7-7-7-7---7-7-7-7-7-7-7-
----------5--------------------------5---------------
-5-------------------------3-------------------------

Chorus - And here I sit, life goes on........

Dave
7-7---------------------------------
7-7----9---9---11---11---9---9-9-9--
8-8----9---9---11---11---9---9-9-9--
9-9----9---9---11---11---9---9-9-9--
9-9----7---7---9----9----7---7-7-7--
7-7---------------------------------

Tim
----11-----7---9---------7----------
----12-----9---11--------9----------
----11-----9---11--------9----------
------------------------------------
------------------------------------
------------------------------------

Boyd - violin arr for guitar
--14----16----------14-----16-------(E)
----16----17---14-----16-----17--14-(B)

end of chorus - soon I'll fade away......
--3-----5---
--3-----5---
--4-----6---
--5-----7---
--5-----7---
--3-----5---

Other versions of Warehouse

Alternative guitar chords and tabs for Warehouse by Dave Matthews Band

Find guitar tabs and chords

A B C D E F G H I J K L M N O P Q R S T U V W X Y Z #