Log in

One click and you are in

Login with Facebook Login with Google

Why sign up and log in

Guitar Tabs Explorer
Dave Matthews Band tabs for Trippin billies

Guitar tabs

Dave Matthews Band
Album: Crash

This is the intro that isn't played on Crash but it is played on all of the=20
other versions:
                    then it is followed by this chord pattern:

                                              3x                     =20
A chord diagramE MajorE||--------------------|----------------------||---------------------|
A chord diagramBB||--------------------|----------------------||---------------------|
A chord diagramG+G||--6--------4--------|--6------4--7--------*||*--2----4------------|
A chord diagramD MajorD||--2--------2--------|--2------2--2--------*||*--0----0------------|
A chord diagramA augmentedA||--x--------x--------|--x------x--x---------||---x----x------------|
A chord diagramE MajorE||--5--------5--------|--5------5--7---------||---2----3------------|
                                                                     =20
----------------------|--------------------|------------------------||
----------------------|--------------------|------------------------||
--2----4----7----6----|--2----4------------|--2--4--6--7-----------*||
--0----0----0----x----|--0----0------------|--0--0--x--0-----------*||
--x----x----x----x----|--x----x------------|--x--x--x--x------------||
--2----3----7----5----|--2----3------------|--2--3--5--7------------||


AND THEN IT GETS INTO THE REALLY FAST PART THAT REALLY FITS THE SONG
WELL AND IT'S MY FAVORITE PART OF THE SONG:

We were above.... =20
                                                   =20
A chord diagramE MajorE||--------------------------|--------------------------|
A chord diagramBB||--------------------------|-----------0--------------|
A chord diagramG+G||-----6--4--0--------7--7--|-----8/-9-----------------|
A chord diagramD MajorD||-----2--2--0--------7--7--|--------------7-----9--9--|
A chord diagramA augmentedA||--------------3/-5--5--5--|--7-----------------9--9--|
A chord diagramE MajorE||--5-----------------------|--8--------------7--7--7--|

                                                =20
--------------------------|--------------------||
--------------------------|--------------------||
-----6--4--0--------7--7--|------2----4--------||
-----2--2--0--------7--7--|------0----0--------||
--------------3/-5--5--5--|------x----x--------||
--5-----------------------|------2----3--------||


So why would you care....

|--------------------|-----------------------|--------------------|
|--------------------|-----------------------|--------------------|
|--7--------6--------|--2--4--6--7--6--------|--7--------6--------|
|--0--------x--------|--0--0--x--0--x--------|--0--------x--------|
|--x--------x--------|--x--x--x--x--x--------|--x--------x--------|
|--7--------5--------|--2--3--5--7--5--------|--7--------5--------|


                     =20
|--------------------||
|--------------------||
|--2--4--6--7--------||
|--0--0--x--0--------||
|--x--x--x--x--------||
|--2--3--5--7--------||


These parts get repeated throughout the song even during the jam!

any questions or comments please contact me Ftball5589@aol.com=20

Almost there ...

Sign in to get your own page with links to favourite songs and more. You are just one click away...

Login with Facebook Login with Google