Log in

One click and you are in

Login with Facebook Login with Google

Why sign up and log in

Guitar Tabs Explorer
Dave Matthews Band tabs for Too much

Guitar tabs with lyrics

"Too Much"

from Dave Matthews Band
Crash

Figure 1
----------- -------- ----------- --------
----------- -------- ----------- --------
-2---4---7- -(7)---- -2---4---7- -(7)----
-0---0---0- -(0)---- -0---0---0- -(0)----
----------- -------- ----------- --------
-2---3---7- -(7)---- -2---3---6- -(6)----

Figure 2
----------- -------- ----------- ------------
----------- -------- ----------- ------------
----------- -------- ----------- ------------
-4--4---x-- -4--4--- -4--4--x-0- -4--4---x-0-
-4--4---x-- -4--4--- -4--4--x-0- -4--4---x-0-
-2--2---x-- -2--2--- -2--2--x-0- -2--2---x-0-


Verse 1

Straight in suck up and go......

Figure 3
*muted strums in between these chords ad lib*
--------- -------
--------- -------
--------- -------
-4-----0- -4---0-
-4-----0- -4---0-
-2-----0- -2---0-

play Figure 3 - 3 more times

Verse 2

Figure 3 - 4 times

Oh, traffic jam, got more cars than.....


Chorus

I eat too much. I drink too much.......

Figure 3 - 2 times


Figure 1

Figure 2

.......I mean, you never know..........


Verse 3
Figure 3 - 4 times

Who do you think you're watching ........


Interlude

funky strumming for 8 bars
--17-----
--17-----
--15-----
-(16)----
---------
---------


Chorus

I eat too much.......

Figure 3 - 2 times

Figure 1
then


Instrumental Jam (Figure 5)

--------------------- -------------------
--------------------- -------------------
--------------------- -------------------
--------------------- -------------------
-0--2------3-3-3----- ~7-7-7----5-5---5--
--------------------- --------------3----
w/
--------------------- -------------------
------H---------H---- ------H------------
---5-4-5-----5-4-5--- ---5-4-5----5---5--
---------5---------5- --------5-----5----
-0---2-----3--------- ~7--------5--------
--------------------- --------------------

--------------------- -------------------
--------------------- -------------------
--------------------- -------------------
--------------------- -------------------
-0--2------3-3-3----- ~7-7-5---5-5-5-5-5-
--------------------- -------------------
w/
--------------------- -------------------
------H---------H---- ------H------------
---5-4-5-----5-4-5--- ---5-4-5----5---5--
---------5---------5- --------5-----5----
-0---2-----3--------- ~7--------5--------
-------------------- --------------------

--------------------- -------------------
--------------------- -------------------
--------------------- -------------------
--------------------- -------------------
-0--2------3-3-3----- ~7-7-7----5-5---5--
-------------------- ---------------3---
w/
------H---------H---- ------H---------H----
---5-3-5-----5-3-5--- ---5-3-5-3---5-3-5-0-
---5-4-5-4---5-4-5-5- ---5-4-5-4---5-4-5-0-
---------5---------7- ---------------------
-0---2-----3--------- ~7---------5---------
--------------------- ---------------------

--------------------- -----------------
--------------------- -----------------
--------------------- -----------------
--------------------- -----------------
-0--2------3-3-3----- -----------------
--------------------- -3-3-3-3-2-2-2-2-
w/
------H---------H---- -----------------
---5-3-5-3---5-3-5--- ---3-3-3-2-2-2-2-
---5-4-5-4---5-4-5-5- ---4-4-4-2-2-2-2-
-------------------7- ---5-5-5-4-4-4-4-
-0---2-----3--------- -----------------
--------------------- -3-------2-2-2-2-

-------------
-------------
-------------
-------------
-------------
-3---2---0---
w/
-------------
-3-3-3-3-----
-4-4-2-2-----
-5-5-4-4-2---
---------2---
-3-3-2-2-0---

Figure 2


Verse 4

I told God, "I'm coming to your country...."

Figure 3 - 4 times


Chorus

I eat too much....

Figure 3 - 2 times

(3/4 bar)
----------
----------
-2---4----
-0---0----
----------
-2---3----

then Figure 5

and then


Outro

Figure 3 until end

Hey........hahahahaha. uh, hey
....suck it up, suck it up, etc.

Fade out

The End


Scott Taylor
School of Music
The Florida State University
http://www.geocities.com/sequenzax
AOL IM: tromba1B
"Eat, drink, and be merry, for tomorrow we shall die." - Epicurus

Almost there ...

Sign in to get your own page with links to favourite songs and more. You are just one click away...

Login with Facebook Login with Google