Log in

One click and you are in

Login with Facebook Login with Google

Why sign up and log in

Guitar Tabs Explorer
Dave Matthews Band chords for The space between

The Space Between chords by Dave Matthews Band

Dave Matthews Band chords for The space between

Guitar chords with lyrics

Album: Everyday
*This file is all of my own work

I have been able to play this song in two ways: Drop A chord diagramD MajorD and Standard

tuning. I've found that it is easier to play it with the Drop A chord diagramD MajorD but play
it as you wish. Dave uses an electric guitar in this song with a little
bit of distortion. He plays the chords in the the Intro fully getting
every note in it. The Chorus is played delicately with a little reverb for
a distant sound. The verse is more of a harder rock feel so show no mercy
on how hard you want to strum the strings. The Bridge has short more
distinguished notes in it. I wrote .5 a few times because sometimes he
plays half of what he usually played and then went to the next line. If
that is confusing then just listen to the song and you'll know what I
mean.

	KEY:
      h - hammer on
      p - pull off
      b - bend string up
      r - release bend
      / - slide up
      \ - slide down
      v - vibrato
      t - tap (with strumming hand)
      x - muted, struck string

  A chord diagramA augmentedA 	        A chord diagramG+G         A chord diagramFF	   A chord diagramEb MajorEb
-------	 ---3---  ---1---  -------
---1---	 -------  ---1---  ---4---
---1---	 -------  ---2---  ---3---
---1---	 -------  ---3---  ---1---
-------	 ---1---  -------  -------
-------	 ---2---  -------  -------

Version 1= Standard

Intro:
A chord diagramA augmentedA  A chord diagramG+G (let ring) 4.5x


Chorus: 3.5x
E:|--10------10-------10h11--10------10------10h11--|
B:|----11-------11--------------11-----11-----------|
G:|-------10-------10--------------10-----10--------|
D:|-------------------------------------------------|
A:|-------------------------------------------------|
E:|-------------------------------------------------|


Verse: 5.5x
A chord diagramFF  A chord diagramFF  A chord diagramEb MajorEb


Chorus: 3.5x


Verse: 2.5x


Bridge: 2x
E:|----------------------------------------------|
B:|----------------------------------------------|
G:|----------------------------------------------|
D:|--10--10--10--10---8--8--8---7--7--7--6--6--6-|
A:|--10--10--10--10---8--8--8---7--7--7--6--6--6-|
E:|---8---8---8---8---6--6--6---5--5--5--4--4--4-|

...then
E: |-----------------------------------------------|
B: |-----------------------------------------------|
G: |-----------------------------------------------|
D: |--10--10--10--10---8--8--8---7--7--7--6--4-----|
A: |--10--10--10--10---8--8--8---7--7--7--6--4-----|
E: |---8---8---8---8---6--6--6---5--5--5--4--2-----|


Chorus: repeat to fade

Version 2= Drop A chord diagramD MajorD tuning

regular tuning	   tuning I'm using
--------------     ----------------
      A chord diagramE MajorE			  A chord diagramE MajorE
      A chord diagramBB			  A chord diagramBB
      A chord diagramG+G			  A chord diagramA augmentedA
      A chord diagramD MajorD			  A chord diagramFF
      A chord diagramA augmentedA			  A chord diagramC majorC
      A chord diagramE MajorE			  A chord diagramG+G


Intro: 4.5x
E: |-----------------------------|
B: |-----------------------------|
A: |----8--8--8--6---------------|
F: |----9--9--9--7---------------|
C: |----9--9--9--7---------------|
G: |----7--7--7--5---------------|


Chorus: 3.5x
E:|---10------10-------10h11---10----10------10h11--|
B:|------11-------11-------------11-----11----------|
A:|---------12-------12-------------12-----12-------|
F:|-------------------------------------------------|
C:|-------------------------------------------------|
G:|-------------------------------------------------|


Verse: 5.5x
E: |-----------------------------|
B: |-----------------------------|
A: |-----------------------------|
F: |---5--5--5--3----------------|
C: |---5--5--5--3----------------|
G: |---3--3--3--1----------------|


Chorus: 3.5x


Verse: 2.5x


Bridge: 2x
E:|-------------------------------------------------|
B:|-------------------------------------------------|
A:|----7--7--7--7---5--5--5---4--4--4---3--3--3--3--|
F:|----7--7--7--7---5--5--5---4--4--4---3--3--3--3--|
C:|----5--5--5--5---3--3--3---2--2--2---1--1--1--1--|
G:|-------------------------------------------------|

...then
E: |----------------------------------------------|
B: |----------------------------------------------|
A: |----7--7--7--7---5--5--5---4--4--4---3--------|
F: |----7--7--7--7---5--5--5---4--4--4---3--6-----|
C: |----5--5--5--5---3--3--3---2--2--2---1--6-----|
G: |----------------------------------------4-----|

Almost there ...

Sign in to get your own page with links to favourite songs and more. You are just one click away...

Login with Facebook Login with Google