Log in

One click and you are in

Login with Facebook Login with Google

Why sign up and log in

Guitar Tabs Explorer
Dave Matthews Band tabs for Sweet up and down

Guitar tabs

"Sweet Up and Down"

Dave Matthews Band
(The Lillywhite Sessions)
12-string acoustic
(figures may vary slightly when recalled throughout)


Intro

Figure 1
---------------0--0-- -(0)---------
--4--4--4--0-0-0--0-- -(0)---------
--4--4--4--2-2-2--2-- -(2)---------
--4--4--4--2-2-2--2-- -(2)---------
--2--2--2--0-0-0--0-- -(0)---------
--------------------- -------------

play Figure 1 - 6 more times then


                        "Big dog bites the.....

Figure 2
---------------0--0-- ---------------
--4--4--4--0-0-0--0-- ---------------
--4--4--4--2-2-2--2-- ---------------
--4--4--4--2-2-2--2-- --2--4--5--7---
--2--2--2--0-0-0--0-- --2--4--5--7---
--------------------- --0--2--3--5---


Verse 1

....bone. Life's too short to take all this...

play Figure 2 - times then

          ....on with the Sweet Up and Down."

Figure 3
---------------0--0-- --------------
--4--4--4--0-0-0--0-- --------------
--4--4--4--2-2-2--2-- --2----4------
--4--4--4--2-2-2--2-- --0----0------
--2--2--2--0-0-0--0-- --------------
--------------------- --2----3------


          "Unturning her cheek....

Figure 4
--------------------
--------------------
--------------------
--2---4---5---7-----
--2---4---5---7-----
--0---2---3---5-----


Verse 2

....inside-out, her neat little pose....

play Figure 2 - 3 times

.....in this sweet up and down."

play Figure 3


Chorus

"I believe in love.....

play Figure 2
play Figure 3
play Figure 2
play Figure 3

play Figure 1 - 3 times

               "Big pig turns to me.....
play Figure 2


Verse 3

....pig he needs to eat like us all.....

play Figure 2 - 3 times

        ...on the sweet up and down."
play Figure 3


Chorus

"I believe in love....

play Figure 2
play Figure 3
play Figure 2
play Figure 3

......on the sweet up and down. BT."


Violin Solo

play Figure 1 - 3 times

            "Up and down, inside out....
play Figure 2


Verse 4

...outside in some you lose some you win...

play Figure 2 - 3 times

        ...on this sweet up and down."
play Figure 3


Chorus

"I believe in love.....

play Figure 2
play Figure 3
play Figure 2
play Figure 3

play Figure 2
play Figure 3
play Figure 2
play figure 3

.....on this Sweet Up and Down...."

play Figure 4


Outro

Play Figure 2 - 11 times

then

----------------------
----------------------
-4--4--4--2-----------
-4--4--4--2--2--2-----
-2--2--2--0--0--0-----
----------------------


The End


Scott Taylor
The Florida State University
http://www.geocities.com/sequenzax/newfrontpage.html
AOL IM: tromba1B
"Eat, drink, and be merry, for tomorrow we shall die." - Epicurus

Almost there ...

Sign in to get your own page with links to favourite songs and more. You are just one click away...

Login with Facebook Login with Google