Log in

One click and you are in

Login with Facebook Login with Google

Why sign up and log in

Guitar Tabs Explorer
Dave Matthews Band tabs for Stolen away on 55th and 3rd

Stolen Away On 55th And 3rd tab by Dave Matthews Band

Dave Matthews Band tabs for Stolen away on 55th and 3rd

Guitar tabs

Intro/Verse/Chorus
e------------------------------------------------
b------------------------------------------------
g----2/3------0---------2-----2/3-3--------------
d-----------1-------0----------------------------
a--3------3-------1---------3--------------------
e---------------3-----1--------------------------

e------------------------------------------------
b------------------------------------------------
g----2/3-----0---------2-----2/3-----3-----------
d----------1-------0---------------0-------------
a--3-----3-------1---------3-----1---------------
e--------------3-----1---------------------------

Pre-Chorus
e------------------------------------------------
b------------------------------------------------
g----2/3---3-----3-----3-2-----------------------
d------------------------------------------------
a--3-----3---3-1---1-----------------------------
e--------------------3---------------------------

tabbed by K DAWG

Almost there ...

Sign in to get your own page with links to favourite songs and more. You are just one click away...

Login with Facebook Login with Google