Log in

One click and you are in

Login with Facebook Login with Google

Why sign up and log in

Guitar Tabs Explorer
Dave Matthews Band tabs for Stay or leave

Guitar tabs with lyrics

Stay Or Leave
Dave Matthews Band
Unreleased
Tabbed By Louis Sedia
*Capo On 7th (all notes relative to Capo)*


Verse
-hit the A chord diagramC majorC chord on the fifth (x54x3x) twice before slidin down again
-you gotta figure out the number of strums cuz im lazy:)
- "o" notes can be muted if u wish
-() means u should hit this bass note with just enough emphasis to have
it stand out...but not too hard. it sounds good, but u dont need to do it.
e--------------------------------------------------------------
B-----------------1/3\1------1------1--------1----------1------
G-----------------x-x--------x------x--------x----------x------
D----2------2-----2/4\2------o------o--------o----------o-------
A----2------3-----3/5\3------2------2--------o----------o-------
E-(0)---(3)--------------(0)---(3)--3---(3)--3-----(2)--2-------

(cont'd)
e----------------------------------------
B------1------1--------1----------1-------
G------x------x--------x----------x-------
D------o------o--------o----------o-------
A------2------2--------o----------o-------
E--(0)---(3)--3---(3)--3----(2)---2--------



Chorus
e---------------3----2------
B---1----1------3----3------
G---2----x------x----2------
D---2----2------o----o------
A--------3------2-----------
E---------------3-----------

"So what to do with the rest of...."
e-------------------------
B---3---3----3----3-------
G---2---2----2----2-------
D---x---x----x----x-------
A---4---3----x----x-------
E------------3----2-------


Lead from "so what to do...." into "Remember we used to dance....."
e------------------------3-------
B------------------1/3---3-------
G------------------x/x---x-------
D-----2------------2/4---4-------
A-----2-------2----3/5---5-------
E--(0)----(3)-3------------------


"Remember We Used To dance....."
 -throw in some musted strums between each chord

e---3-------------------------
B---5----1------------3-------
G---5----2-----2------2-------
D---5----2-----2------x-------
A---3----------x------x-------
E--------------3------2-------


"What Day is this..."
-end on the A chord diagramD MajorD chord (ooo232)

e-------------2-----------------------2------
B---1---1-----3----3-----1-----1------3------
G---2---2-----2----2-----2-----2------2------
D---2---2----------x-----2-----2-------------
A-------3----------4-----------3-------------
E--------------------------------------------

Other versions of Stay Or Leave

Stay or leaveChords
Stay or leave (Ver. 2)Chords

Almost there ...

Sign in to get your own page with links to favourite songs and more. You are just one click away...

Login with Facebook Login with Google