Log in

One click and you are in

Login with Facebook Login with Google

Why sign up and log in

Guitar Tabs Explorer
Dave Matthews Band tabs for Stand up

Guitar tabs

Verse
e------------------------------------------------
b------------------------------------------------
g------------------------------------------------
d-----5--3p2p0-----------------------------------
a--------------3h5p3h5---------------------------
e--3---------------------------------------------

breakdown
e------------------------------------------------
b------------------------------------------------
g------------------------------------------------
d------------------------------------------------
a---10---8-10-8-7-8-7-5-7-5-3-----4-3------------
e------------------------------------------------

tabbed by K-DAWG

Almost there ...

Sign in to get your own page with links to favourite songs and more. You are just one click away...

Login with Facebook Login with Google