Log in

One click and you are in

Login with Facebook Login with Google

Why sign up and log in

Guitar Tabs Explorer
Dave Matthews Band chords for Space between

Guitar chords

The Space Between
Dave Matthews Band
Tabbed by: Steve Hendriksen

I got this off of an acoustic version I heard. It soungs good
I think. It works too if you get another guitar in dropped-D to
strum power chords
Intro/Verse/Outro  A chord diagramE MajorE Dsub2

	A chord diagramA augmentedA	A chord diagramA majorA	A chord diagramA augmentedA  (then this)
E-------0-------0-------0-------------------------
B-------2-------2-------2-------------------------
G-------2-------2-------2------2------------------
D-------2-------2-------2------0------------------
A-------0-------0-------0------x------------------
E------------------------------3------------------


Chorus

E---------------------0------------
B---------------------3------------
G-----6-------6------2-----6-----Repeat but 2nd time
D-----7-------7------0-----7------"safe from the pain"
A-----7-------7------0-----7-------- go to verse strum
E-----5-------4------2-----4-------


Play this over the chorus w/ 2nd guitar

E----9-----9---9-10--------------------
B-----10---10------------------------
G-------9----9------------------------
D----------------------------------
A----------------------------------
E----------------------------------


Bridge

E--------------------------------------------------------
B------------------------------------last time go to-------
G-------------------------------------------------------------
D------9----7----6----5---4-x3----------3------------------
A------9----7----6----5---4--------------3-----------------
E------7----5----4----3---2--------------1--------------




_________________________________________________________________
MSN Photos is the easiest way to share and print your photos:
http://photos.msn.com/support/worldwide.aspx

Other versions of Space Between

Space between acousticChords

Almost there ...

Sign in to get your own page with links to favourite songs and more. You are just one click away...

Login with Facebook Login with Google