Log in

One click and you are in

Login with Facebook Login with Google

Why sign up and log in

Guitar Tabs Explorer
Dave Matthews Band tabs for So right

Guitar tabs with lyrics

Title: So Right
Album: Everyday
Track: 1
This is my work, actually my first work.  There aren't any books out
yet.)

Version: 1.0
(Not all of it yet but I am working steadily)
Version: 1.1
(Got most of it I think.)
Version 1.2
(Added Order and Lyrics enjoy)

KEY:
/= slide up

Standard tuning

Guitar part 1 (mild distortion)
-------------------------------------------|
--7-----------------7----------------------|
--6/7-7-6-7-6-7-----6/7-7-6-7-6-7---6-6-6/7|
--7---9-7-9-7-9-----7---9-7-9-7-9----------|
-------------------------------------------|
-------------------------------------------|


During verses
-------------------------------|
-7-----------------------------|
-6/7-7-6-7-6-7----------6-6-6/7|
-7---9-7-9-7-9-----------------|
-----------------9-9-9---------|
-------------------------------|

Guitar 2  (mild distortion)
----------------------------------------------------------------------------|
----------------------------------------------------------------------------|
----------------------------------------------------------------------------|
---4-4-4-4-4-6-6-6-6-6-7-7-7-7-7-9-9-9-9-9-7-7-7-7-7-6-6-6-6-6-4-4-4-4-4-4-4|
---2-2-2-2-2-4-4-4-4-4-5-5-5-5-5-7-7-7-7-7-5-5-5-5-5-4-4-4-4-4-2-2-2-2-2-2-2|
----------------------------------------------------------------------------|



Chorus  (Twice)
----------------------------------------------------------------------------|
-----------------------3-3-3-3-3--------------------------------------------|
-7-7-7-7-7--4-4-4-4-4--4-4-4-4-4-------------4-4-4-4-4----------------------|
-7-7-7-7-7--5-5-5-5-5-------------4-4-4-4-4--5-5-5-5-5----------------------|
-5-5-5-5-5-------------2-2-2-2-2--------------------------------------------|
------------3-3-3-3-3-------------2-2-2-2-2--3-3-3-3-3----------------------|


After 2nd verse    (chords)
-------2-----5-|
-------2-----5-|
-------2-----6-|
-2-----4-----7-|
-2-----4-----7-|
-------2-----5-|
 A chord diagramE minorEm   A chord diagramF# minorF#m   A chord diagramA augmentedA


THE ORDER


Guitar part 1
Guitar during verses all the way through add Guitar 2 5 measures in.

Chorus X 2
Guitar during verses, add guitar 2 after 5 measures.

Chorus X 2
After 2nd verse stuff
Guitar during verses, add guitar 2 after 5 measures.

Chorus till end

Almost there ...

Sign in to get your own page with links to favourite songs and more. You are just one click away...

Login with Facebook Login with Google