Log in

One click and you are in

Login with Facebook Login with Google

Why sign up and log in

Guitar Tabs Explorer
Dave Matthews Band tabs for So much to say

Guitar tabs with lyrics

Just some basic parts of the song here.
Mix and match these riffs/progressions throughout the song.
nc=no chord, x=mute string.

Title: So Much To Say
transcribed by: rjmcpher@uci.edu

Intro:
A chord diagramE MajorE +---5--------------|--------------------|
A chord diagramBB |---5--------------|-----x5-------------|
A chord diagramG+G |---5/6----------0-|-----x5/6-6--------0|
A chord diagramD MajorD |-----0-7--------0-|--------0-7--------0|
A chord diagramA augmentedA |----------------0-|-------------------0|
A chord diagramE MajorE +/5--------0-8\----|3/5----------0-8\---|


A chord diagramE MajorE +---------------------|------5--------------|
A chord diagramBB |----0-0-5------------|----0-5--------------|
A chord diagramG+G |--------5/6-6-------0|----0-5/6-----------0|
A chord diagramD MajorD |----------0-7-------0|-----------7------0--|
A chord diagramA augmentedA |--------------------0|---------------------|
A chord diagramE MajorE +3/5-----------0-8\---|3/5----------0-8\----|


Verse:
A chord diagramE MajorE +------------------|----------------------|
A chord diagramBB |----x-5-----------|-------6--------------|
A chord diagramG+G |----x-5---6-------|-------7--0-x-------7-|
A chord diagramD MajorD |--------0-7-----5-|-0-----7--0-------7---|
A chord diagramA augmentedA |--------------3---|-----x----------5-----|
A chord diagramE MajorE +3/5---------1-----|--------------3-------|

   I say..

A chord diagramE MajorE +---------------------|------5--------------|
A chord diagramG+G |----0-0-5------------|----0-5--------------|
A chord diagramBB |--------5/6-6-------0|----0-5/6-----------0|
A chord diagramD MajorD |----------0-7-------0|-----------7------0--|
A chord diagramA augmentedA |--------------------0|---------------------|
A chord diagramE MajorE +3/5-----------0-8\---|3/5----------0-8\----|
                       Can't ..


nc(A chord diagramA augmentedA)         A chord diagramFsus2Fsus2    nc       A chord diagramDmDm         A chord diagramGsus2Gsus2
I ..

nc (A chord diagramA augmentedA)               nc (A chord diagramA augmentedA)
                     | Can't see the light


In ..
We ..
Keep ..
Talk..

Yeah .
Open..


A chord diagramE MajorE +-------------|----------|------------|-----------|
A chord diagramBB |-------------|----------|------------|-----------|
A chord diagramG+G |----5-6--0-2-|---5--7---|---5-6--0-2~|~0--5--6---|
A chord diagramD MajorD |----5-5------|---5--7---|---5-5------|----5--5---|
A chord diagramA augmentedA |-------------|----------|------------|-----------|
A chord diagramE MajorE +-------------|----------|------------|-----------|

'Cuz ..
Treading ..

I ..
Can't ..
And ..
Got ..

'Cuz ..
Treading ..

A chord diagramA5A5   A chord diagramD5D5   A chord diagramGsus2Gsus2          A chord diagramD5D5
I    ..

A chord diagramA5A5       A chord diagramD MajorD  A chord diagramG+G           A chord diagramDsus2Dsus2
Sometimes   ..


A chord diagramA7A7 A chord diagramAm7Am7 A chord diagramA7A7       A chord diagramFF     nc  A chord diagramG+G     nc     A chord diagramA7A7
I see ..
A chord diagramA7A7         nc           A chord diagramA7A7
Little..
            A chord diagramFsus2Fsus2          A chord diagramDmDm             A chord diagramGsus2Gsus2
One ..
deep ..
So ..
So..

'Cuz ..
Treading..

I find..
Sometimes..

So ..
So ..
Open ..



From marv@iainc.net Tue Nov 26 11:21:27 1996

This is off their cd Crash.  I dont care what you do with it. I know it is right


INtro:

----------------X--X--5-------------------------------------------------
----------------X--X--5-\--6--------------------------------------------
----------------X--X--5\-----------------------------------------------
-------------------------------------------7--------------------------
---------------------------------------------------------------
-0\5----------------------------------------------------8\0------------(two
times)

-----------------------X--X---5---------------------------------------------
--------------------------------------
-----------------------X--X---5-\6------------------------------------------
------------------------------------
-----------------------X--X---5---------------------------------------------
-----------------------10------------
------------------------------------------------7--------------------------5
------------------------7-----------------
---------------------------------------------------------------------3------
------------------------------------------
----------0\5----------------------------------------------1----------------
------3\10---------------------------


----------------------------------------------------------------------------
---------------------------------
----------------------------------------------------------------------------
--------------------------------
------------------------------------------------------------7*--------------
---------------------------------
------------------------------------------------7---------------------------
-------------------------------
----X---X-------------------------5-----------------------------repeat
---------------------------------------------------
----X---X-------------3-----------------------------------------------------
--------------------------------

DO this for most of the song with slight variations.  Just listen for the
variations.

The bridge is barre chords:A A chord diagramD MajorD A chord diagramG+G A chord diagramA augmentedA ("Ill find....")


Enjoy.   "Play the guitar and play life."

GUitar is life.  You can see our band play every friday night at mellow
mushroom in Snellville Ga.  We are called The Acqueistrio

Almost there ...

Sign in to get your own page with links to favourite songs and more. You are just one click away...

Login with Facebook Login with Google