Log in

One click and you are in

Login with Facebook Login with Google

Why sign up and log in

Guitar Tabs Explorer
Dave Matthews Band tabs for Sleep to dream her

Sleep To Dream Her tab by Dave Matthews Band

Dave Matthews Band tabs for Sleep to dream her

Guitar tabs with lyrics

"Sleep To Dream Her"

Everyday
Dave Matthews Band
Baritone Guitar
(arranged for standard electric)


Verse 1

"I know I'll miss her later..."

Figure 1
----------------------------- ---------------------------
----12--12--12----12--12--12- ---12--12--12---11--11--11-
----11--11--11----11--11--11- ---11--11--11---11--11--11-
----------------------------- ---------------------------
----------------------------- ---------------------------
-11------------10------------ -9------------9------------

----------------------------- ---------------------------
----10--10--10----10--10--10- ---10--10--10----9---9---9-
-----9---9---9-----9---9---9- ----9---9---9----9---9---9-
----------------------------- ---------------------------
----------------------------- ---------------------------
--9-------------8------------ -7------------7------------

---------------------- ---------------------
---8--8--8----8--8--8- ---8--8--8---7--7--7-
---7--7--7----7--7--7- ---7--7--7---7--7--7-
---------------------- ---------------------
---------------------- ---------------------
-7---------6---------- -5---------5---------

---------------------- ----------------------
----5--5--5---5--5--5- ----5--5--5---5--5--5-
----7--7--7---7--7--7- ----6--6--6---6--6--6-
---------------------- ----------------------
---------------------- ----------------------
--5---------5--------- --5---------5---------


Verse 2

"She stares up at the stars...."

same as before


Verse 3

"Oh, I sleep just to dream her..."

same as before


Verse 4

"Oh, I came there to find out..."

same as before


Interlude

E------- ------- ------- ------- ------- ------- ------- ------
B---1--- ---0--- ---2--- ---2--- ---1--- ---0--- ---3--- ------
G---2--- ---0--- ---2--- ---2--- ---2--- ---0--- ---2--- ------
D---2--- ---0--- ---2--- ---2--- ---2--- ---0--- ---0--- ------
A---3--- ---2--- ---0--- ---0--- ---3--- ---2--- ---0--- ------
D---3--- ---2--- ---2--- ---2--- ---3--- ---2--- ---0--- ------
   (T)


Verse 5

"This space between us..."

same as before


Verse 6

"It seems so unnerving..."

same as before


Interlude

same as before


Verse 7

"Oh, I sleep just to dream her..."

same as before


Verse 8

"Oh, I know I'll miss her later..."

same as before


Outro

play first 4 bars of Interlude material - 2 times
play last 4 bars of Interlude material
play last 2 bars of Interlude - 2 more times

The End

Almost there ...

Sign in to get your own page with links to favourite songs and more. You are just one click away...

Login with Facebook Login with Google